busca

Tenement Funster

Queen

Tom: G
Dedilhado:
   Em        Am        Em        Am        Em
|-----0---------0---------0---------0---------0-----------------------------
|----0-0-------1-1-------0-0-------1-1-------0-0----------------------------
|---0---0-----2---2-----0---0-----2---2-----0---0---------------------------
|--2-----2---2-----2---2-----2---2-----2---2-----0--------------------------
|-----------0-------------------0-------------------------------------------
|-0-------------------0-------------------0---------------------------------

   G         G7        C         Cm
|-----3---------1---------0---------3---------------------------------------
|----0-0-------0-0-------1-1-------4-4--------------------------------------
|---0---0-----0---0-----0---0-----5---5-------------------------------------
|--0-----0---0-----0---2-----2---5-----5------------------------------------
|---------------------3---------3-------------------------------------------
|-3---------3---------------------------------------------------------------

   D         D7+         D7
|-----2---------2---------2-------2-2-2-2-----------------------------------
|----3-3-------2-2-------1-1------1-1-1-1-----------------------------------
|---2---2-----2---2-----2---2-----2-2-2-2-----------------------------------
|--0-----0---0-----0---0-----0----0-0-0-0-----------------------------------
|-0---------0---------0-----------0-0-0-0-----------------------------------
|---------------------------------------------------------------------------

Intro: Em    Am

Em              Am
 My new purple shoes
      Em                         G
'bin amazing the people next door
G7                   C
 And my rock'n'roll 45's
       Cm                        D          D7+  D7 (D7 D7 D7)
'bin enraging the folks on the lower floor


Em                         Am
 I got a way  with the girls on my block
           Em                    Am
Tryin' my best be a real individual
Em                         G           G7
 And when we go down to Smokies and rock
           C             Cm          D    D7+  D7 (D7 D7 D7)
They line up like it's some kinda ritual

Em              A7
 Oh give me a good guitar
            Em                           A
and you can say that my hair's a disgrace
Em                  G
 or just buy me an open car
G7              C7              Eb         D7
I'll make the speed of light outta this place

Solo: Em G 3x(G#m Bm) Eb

Em            Am
 I like the good things in life
     Em                               Am
But most of the best things ain't free
       Em                  G7
This same situation just cuts like a knife
             C               Cm                D   D7+ D7 D7+ D
When you're young and you're poor and you're crazy

Em              A7
 Oh give me a good guitar
            Em                           A
and you can say that my hair's a disgrace
Em                    G
 or just find me an open car
G7              C7              Eb         D7  D  G
I'll make the speed of light outta this place

Clipes

Cifra Club Pro

Aproveite o Cifra Club com benefícios exclusivos e sem anúncios
7 dias grátis
Cifra Club Pro
Aproveite o Cifra Club com benefícios exclusivos e sem anúncios
7 dias grátis