busca

The Miracle

Queen

Tom: C#
  
intro:Cm
  
Cm                                G#                               A#7
Every drop of rain that falls in Sahara Desert says it all it's a miracle 
     D#                                    Cm                                     G7
All god's creations great and small, the Golden Gate and the Taj Mahal, that's a miracle. 
C#                            B6                                   A#7
Test tube babies being born, Mothers, fathers dead and gone it's a miracle. 
  
  D#                      C#    G#
We're having a miracle on earth 
D#                         C#    B
Mother nature does it all for us 
       F#
The wonders of this world go on 
        G#/F#
The Hanging Gardens of Babylon 
F#
Captain Cook and Cain an' Abel 
G#/F#
Jimmy Hendrix an' the Tower of Babel 
D#m7
It's a miracle 
D#m7            G#7
It's a miracle    
  
C#             D#/C#                   G#                F#
The one thing we're all waiting for is peace on earth an end to war. 
        C#                  A#m7      D#11
It's a miracle we need, the miracle 
     F#       C#       G#      F#        G#    C#
The miracle we're all waiting for, today. 
  
Cm                           G#                                  A#7
If every leaf on every tree could tell a story that would be a miracle. 
     D#                              Cm
If every child on every street had clothes to wear and food to eat 
G7
that's a miracle. 
C#                                    B6
If all god's people could be free to live in perfect harmony 
A#7              D#                      C#     G#
it's a miracle,we´re having a miracle on earth 
D#                         C#   B
mother nature does it all for us 
  
F#
Open hearts and surgery 
G#/F#
Sunday mornings with a cup of tea 
F#                             G#/F#
super powers always fighting but Mona Lisa just keeps on smiling 
  
D#m7
it's a miracle 
D#m7
It's a miracle 
D#m7
it's a miracle 
  
solo:
|-17-16-17---b19vvr17p16-14-16--b17vvr16p14------------|
|-------------------------------------------17---------|
|----------------------------------------------16b18---|
|------------------------------------------------------|
|------------------------------------------------------|
|------------------------------------------------------|

|----------------------14-16--b17vv_r16-14-16--17--19--19b20vv---|
|-------------17-14-17-------------------------------------------|
|-16-16-16b18----------------------------------------------------|
|----------------------------------------------------------------|
|----------------------------------------------------------------|
|----------------------------------------------------------------|

|-19--17--15--17b19___r17p15-17--------------15--17--17b19-----21b22---b22--21--|
|-------------------------------17__\----15-------------------------------------|
|-------------------------------------------------------------------------------|
|-------------------------------------------------------------------------------|
|-------------------------------------------------------------------------------|
|-------------------------------------------------------------------------------|
  
   F#                        G#/F#
The wonders of this world go on 
G#              D#m7
Well it's a miracle 
D#m7
it's a miracle 
D#m7
It's a miracle 
  
C#            D#/C#                     G#               F#
The one thing we're all waiting for is peace on earth an end to war. 
        C#                  A#m7      D#11
It's a miracle we need, the miracle 
C#   F#
The miracle 
C#      G#  F#     C# G# F#  C#  G#7
Peace on earth and  end to war 
 
Final: 
|-------------------------------------------------------------------------------------------|
|-12b14vvv-----------12b14___t15___p14r12p9-12v----9----------------------------------------|
|--------------------------------------------------x-9-11--11b_13_t14v---11b__13_r11p911p9--|
|-----------x-x-8-x-------------------------------------------------------------------------|
|-----------x-x-x-10------------------------------------------------------------------------|
|-----------x-x-x-x-------------------------------------------------------------------------|

|----------------------------------------------------------------------------------|
|-12b__14-t14p12t14p11t14p10t14p9--------------------------------------------------|
|--------------------------------t14p12t14p11t14p9---------------------------------|
|-------------------------------------------------t14p11t14p9t14-------------------|
|---------------------------------------------------------------h11t14p10t14p9-7---|
|----------------------------------------------------------------------------------|

|-x--------x---------x---------x-x---------|
|-16b18----x-18b19---x-19b21---x-x-20b21---|
|-x--------x-----------x-------x-x---------|
|------------------------------------------|
|------------------------------------------|
|------------------------------------------|

|------------------------------------------------------------------------------------------------
|18__\12b14t15p14r12--12b14t15p14r12p9-12b14_t15__pr12p9-12b14t17__pr12p9h12b14_t18b_b19r18rp12v-
|------------------------------------------------------------------------------------------------
|------------------------------------------------------------------------------------------------
|------------------------------------------------------------------------------------------------
|------------------------------------------------------------------------------------------------

|-------------------------------------|
|-9-----------------------------------|
|---12-11-9---------------------------|
|-----------11-9----------------------|
|-----------------11-10-9-7---7-------|
|---------------------------9---9-7v--| 
 
 
   : C#                   D#/C#
4x : That time will come, one day you'll see 
   : G#             G#7   F#     C#
   : when we can all be friends

Clipes