busca

Who Needs You

Queen

Tom: A
 /   slide up         --/2     chord        0/
 \   slide down       --\2-     with        /0   repeat
 p   pull-off         --/2-   arpeggio
 h   hammer-on        --\0-                 <7>  natural harmonics


right acoustic guitar
|-------------------------------|
|-------------------------------|
|-------------------------------|
|-------2/4--2----4p2p0------2--|
|-0--4-----------------2-----0--|
|-------------------------0-----|

right ac. g. 
   A           D        A     D       A      B7  E
|---------------------------------------------------|
|----5-5---5---7----7-----5---7---7-----5-----7--9--|
|----6-6---6---7----7-----6---7---7-----6-----8--9--|
|----7-7---5---7----7-----7---7---7-5---7-----7--9--|
|-0------------5--5---5-------5-5----------------7--|
|-5------5--------------5-------------5----7--------|
|left ac. g.
|-----------------------------------------------------|
|----5-5---5---7----7-------5---7---7-----5-----7--9--|
|----6-6---6---7----7-------6---7---7-----6-----8--9--|
|----7-7---5---7----7-------7---7---7-----7-----7--9--|
|--------------5--5---5h7-------5-5---5------------7--|
|-5------5----------------5-------------5----7--------|

two ac. g. arr.for one
|-------------------------------------------------|
|----5-5---5---7---7-----5---7---7-----5----7--9--|
|----6-6---6---7---7-----6---7---7-----6----8--9--|
|----7-7---5---7---7-----7---7---7-----7----7--9--|
|--------------5-5-----------5-5---5-----------7--|
|-5------5-----------5-5-------------5----7-------|

                                               Bm7   C#m7  Bm7
   D   E7    A                D     E7    A F#m    E7   F#7     E7
|-2----------2-------|------|-2--------2-----2---2-----4-----2------|
|---------3--3-------|------|-------3--3-----2---3-3---5-5---3-3--3-|
|-2(p0)---4--4--2-2--|--0/--|-2(p0)-4--4--2--2---2-1---4-3---2-1--1-|
|-0-------------2-2--|--/0--|-0-----------2--------2-----4-----2-2--|
|---------------0-0--|------|-------------0-----2-----4-----2-------|
|---------4-4--------|------|-------4-4------2----------------------|

  A  A   E   E            B   A  E    F#m  G#m E
|---------------|------|---------------2--2--2/4--------|------|
|---------------|------|-/4--/2--------2--2--2/4---5--0-|------|
|-2--2---4---4--|--0/--|-\4--\2--4--4--2--2--2/4---4--1-|--0/--|
|-2--2---4h6-6--|--/0--|-/4--/2--6--6------------6-6--2-|--/0--|
|-0--0---7---7--|------|-\6--\4--7--7-----------------2-|------|
|--------0---0--|------|---------0-----2--2--------0----|------|


  C#m      A         A7  C#m7     F#m       A         B       E       E7
|--------4-----------0----------------------------------------0-0---0-0-0--0-|
|-5--5---5-------2-2-2--5--5---5---2-----5--2--2---2--4-4--4--0-0---3-3-3--3-|
|-6--6---6-------2-1-0--4--4---4---4-3---3--2--2---2--4-4--4--1-1---1-1-1--1-|
|-6--6------------------6--6---6---4-4---2--2--2---2--4-4--4--------2-2-2-2--|
|-4--4--4---------------4--4--4------4------0--0--0---2-2-2------------------|
|----------0----------------------2-----2---------------------0-0------------|


|------------------------------------------------|
|----5-5---5---7---7-----5---7---7-----5----7--9-|
|----6-6---6---7---7-----6---7---7-----6----8--9-|
|----7-7---5---7---7-----7---7---7-----7----7--9-|
|--------------5-5---5-------5-5---5-----------7-|
|-5------5-------------5-------------5----7------|

|-----------------------------------------------|
|---5-5---5--7---7-----5---7---7-----5----7--9--|
|---6-6---6--7---7-----6---7---7-----6----8--9--|
|---7-7---5--7---7-----7---7---7-----7----7--9--|
|------------5-5---5-------5-5---5-----------7--|
|-5-----5------------5-------------5----7-------|

 
|-2--------2----------2-----4-----2----------|
|-------3--3----------3-3---5-5---3-3--3--2--|
|-2(p0)-4--4--2--2----2-1---4-3---2-1--1--2--|
|-0-----------2--2------2-----4-----2-2---2--|
|-------------0--0---2-----4-----2--------0--|
|-------4-4----------------------------------|

right            left
|---------------|------------|
|---------------|------------|
|---------------|------------|
|-------2/4--2--|-4p2p0------|
|-0--4----------|------2-----|
|---------------|---------0--|


|----------0--0---2--2--2/4--------|------|
|-/4--/2---0--0---2--2--2/4--5--0--|------|
|-\4--\2---1--1---2--2--2/4--4--1--|--0/--|
|-/4--/2---------------------6--2--|--/0--|
|-\6--\4---------------------7--2--|------|
|-----------------2--2-------------|------|


|--------------------------------------------------0-0--0--0-0-0--0-|
|-5-5--5--2-2--2--5-5--5---2-2--2--2-2--2--4-4--4--0-0--2--3-3-3--3-|
|-6-6--6--2-2--2--4-4--4---4-3--3--2-2--2--4-4--4--1-1--1--1-1-1--1-|
|-6-6--6--2-2--2--6-6--6---4-4--4--2-2--2--4-4--4----------2-2-2-2--|
|-4-4-4---0-0-0---4-4-4------4-----0-0-0---2-2-2--------------------|
|-------------------------2----2-------------------0-0-0------------|


|-----------------------------------------------------|
|----5-5---5---7---7-----5---7---7-----5----7--9------|
|----6-6---6---7---7-----6---7---7-----6----8--9------|
|----7-7---5---7---7-----7---7---7-----7----7--9--6---|
|--------------5-5---5-------5-5---5-----------7------|
|-5------5-------------5-------------5----7---------0-|

|-------------------------------------------------|
|----5-5---5---7---7-----5---7---7-----5----7--9--|
|----6-6---6---7---7-----6---7---7-----6----8--9--|
|----7-7---5---7---7-----7---7---7-----7----7--9--|
|--------------5-5---5-------5-5---5-----------7--|
|-5------5-------------5-------------5----7-------|


|-2---------2-------|------|-2--------2----2----2-----4----2---2-0--0-|
|--------3--3-------|------|-------3--3--2-2----3-3---5-5--5---3-3--3-|
|-2(p0)--4--4--2-2--|--0/--|-2(p0)-4--4--2-2----2-1---4-3--3---2-1--1-|
|-0------------2-2--|--/0--|-0-----------2--------2-----4-4------2-2--|
|--------------0-0--|------|-------------0-----2-----4--------2-------|
|--------4-4--------|------|-------4-4-----2--------------------------|

  A     E      -3- D C#m7 Bm7 Dmaj7 
|----------------7----------2-2-|
|-2--2--5---5---9-------5---3-2-|
|-2--2--4---4--9---7----4---2-2-|
|-2--2--4h6-6------7----6-------|
|-0--0--7---7------5----4--2--0-|
|-------------------------------|


and here come the solos...
(right)
0'40" 
|--------9-12-10-9-10---10---10-9-----------------------9--12--9--------------|
|-10---10-------------------------12-10-9------10-----10----------10----------|
|-----9-----------------------------------10-9-------9----------------11-10-9-|
|--------------------------------------------------11-------------------------|
|-----------------------------------------------------------------------------|
|-----------------------------------------------------------------------------|

 1'05"                   1'10"
|----------------------||-------0-4--2h4p2--0-2--|
|-5p4------------------||-----2------------------|
|-----6----------------||---3--------------------|
|-------4h6-4h6p4------||-4----------------------|
|-----------------7--0-||------------------------|
|----------------------||------------------------|

 1'17"
|------------------------------------------9-------10--9h10p9---------12-----|
|-------------------------10--10p9-10--12-----10--------------12--10------10-|
|--------9/11-9--11-9-8-9----------------------------------------------------|
|---6-9----------------------------------------------------------------------|
|-7--------------------------------------------------------------------------|
|----------------------------------------------------------------------------|

|-10--9h10p9---------12-------11----------------|
|------------12--10------10-------12------------|
|-------------------------------------11--10--9-|
|-----------------------------------------------|
|-----------------------------------------------|
|-----------------------------------------------|

|--------------9-10-12-----12/14--12--10h12p10-9--10---9----------12------|
|------9-10-12----------9---------------------------------12--10------10--|
|-9-11--------------------------------------------------------------------|
|-------------------------------------------------------------------------|
|-------------------------------------------------------------------------|
|-------------------------------------------------------------------------|

                                                               --4--
|-10p9----------------------------12-14(p10--)-10--------------9-----------|
|------12-10-9-10----------------------(---12)----12-9----------10---------|
|-----------------9---8-------9------------------------11-10-9----9--------|
|-------------------------9----------------------------------------12--11--|
|--------------------------------------------------------------------------|
|--------------------------------------------------------------------------|

                      --4-         --4-
|---------------------9------------7-----------------------------|
|-10---12--------------9------------7---------------------5/7--5-|
|----------11--9/11-9---9------------7----------9\-----6---------|
|------------------------9--9--8------9--7--6-------7------------|
|----------------------------------------------------------------|
|----------------------------------------------------------------|

 1'50"
|--<12>-<12>-----<12>-<12>-----<12>-<12>---<12>-<12>-----<7>------<7>-<5>---|
|---------------------------------------------------------------------------|
|---------------------------------------------------------------------------|
|---------------------------------------------------------------------------|
|---------------------------------------------------------------------------|
|---------------------------------------------------------------------------|

 2'05"                    2'10"
|-4-5-4-----------------||----4-2-0-2-0---------------------------|
|-------7-5-4-5-4-------||-02-----------2-0-2-0----------2--0h2h4-|
|-----------------6-4-6-||----------------------2-1-2-------------|
|-----------------------||----------------------------------------|
|-----------------------||----------------------------------------|
|-----------------------||----------------------------------------|
 
 2'17" 
|---7-10-9-7--------------------------------------|
|--9---------10-9-7----------------------------10-|
|-9-----------------9-8-7---9/11--9---11-9-8-9----|
|-------------------------------------------------|
|-------------------------------------------------|
|-------------------------------------------------|

 2'34"
|-------------------------(10)--|
|-----------9-10-12-9-10--------|
|--------9----------------------|
|-----9-------------------------|
|-9h11--------------------------|
|-------------------------------|

 2'45"                                2'57"
|--------------9-10-12--9-----------||-12-10-9---------------|
|------9-10-12-------------10p9-----||---------12-10-9-------|
|-9-11--------------------------11--||-----------------11-9--|
|-----------------------------------||-----------------------|
|-----------------------------------||-----------------------|
|-----------------------------------||-----------------------|

Clipes