busca

A Ilha da fantasia

Raul Seixas

Tom: G
[Intro] E  F#7  A 
        E  F#7  A  E

[Solo]

E|-------------0--0---0---0-----------|
B|--------------0------0---0----------|
G|-0h1-2-3-3/4---4---3---2------------|
D|------------------------------------|
A|------------------------------------|
E|------------------------------------|

E|-------------0--0---0---0-----------|
B|--------------0------0---0----------|
G|-0h1-2-3-3/4---4---3---2------------|
D|------------------------------------|
A|------------------------------------|
E|------------------------------------|

E     G#m   A           B7          E
Vamos logo que já tá na hora de zarpar

E|-------12---------------12----------|
B|------------------------------------|
G|-11/13----13\11-9-11b13----13r11p9--|
D|------------------------------------|
A|------------------------------------|
E|------------------------------------|

E        G#m  A       B            E
Vem sem medo que não vamos naufragar

E|-------12-------------12------------|
B|------------------------------------|
G|-11/13----13\11--9/11---------------|
D|------------------------------------|
A|------------------------------------|
E|------------------------------------|
       A
Navegador!
           B         C#m
Não se esqueça, meu amigo
                  G#m  E
De chamar o seu vizinho
       A
Navegador!
           B          E        C#m
Vê se na praça tem alguém para vir
   A        B             E         C#m
A barca de Noé já vai partir, navegador
   A        B             E    
A barca de Noé já vai partir

[Solo] E  F#7  A  
       E  F#7  A  E 

       A
Navegador!
           B        C#m
Não se esqueça meu amigo
                  G#m  E
de chamar o seu vizinho
       A
Navegador!
           B          E        C#m
Vê se na praça tem alguém para vir
   A        B           E         C#m
A barca de Noé tá pra sair, navegador
   A        B             E    
A barca de Noé já vai partir
 E     G#m  A          B          E
Vamos escolher bem melhores condições
       G#m  A           B          E  
Longe desse triste carnaval de ilusões
      A
Navegador!
              B              C#m
Deixe os que sonham em ser felizes
              G#m
Habitando o paraíso
       A
Navegador!
       B             E  C#m
Já faz tempo que esperou
  A            B             E
Vivendo sobre leis que não criou
      C#m
Navegador
  A                B             E
Vivendo sobre as leis que não criou
      C#m
Navegador
   A              B              C    D    E
Vivendo sobre as leis que não criou não! Não!

               E
E|-------------0----------------------|
B|-------------0----------------------|
G|-3h4-3-2-1-2-1----------------------|
D|-------------2----------------------|
A|-------------2----------------------|
E|-------------0----------------------|

Clipes

Cifra Club Pro

Aproveite o Cifra Club com benefícios exclusivos e sem anúncios
7 dias grátis
Cifra Club Pro
Aproveite o Cifra Club com benefícios exclusivos e sem anúncios
7 dias grátis