busca

Aluga-se

Raul Seixas

Tom: D
[Intro] F#  G  G#  A
      
(riff)
E|---------------|
B|---------------|
G|---------------|
D|----4-5-6-7----|
A|----4-5-6-7----|
E|----2-3-4-5----|

[Solo]

E|----8p7p5--------------------------|-----5-----5-----------|
B|----------8p7p5--------------------|-------5-8---8b10p5---5|
G|----------------8p7p5-7-7b8r7p5---5|-7b8----------------7--|
D|--------------------------------7--|-----------------------|
A|-----------------------------------|-----------------------|
E|-----------------------------------|-----------------------|

E|------------------------------------15---------------------|
B|------13----15b17r15p13-15-13-15b17----15b17r15p13-15-15b17|
G|12/14----14------------------------------------------------|
D|-----------------------------------------------------------|
A|-----------------------------------------------------------|
E|-----------------------------------------------------------|

E|---------22r20-17-15----15b17-15b17-17r15------|
B|---15/17-------------17-------------------13/15|
G|-----------------------------------------------|
D|-----------------------------------------------|
A|-----------------------------------------------|
E|-----------------------------------------------|

( F# ,G ,G# ,A )

A solução pro nosso povo eu vou dar
Negócio bom assim ninguém nunca viu
Tá tudo pronto aqui é só vir pegar
A solução é alugar o Brasil

E|---------8----------|
B|-----8-----8--------|
G|-----7b8---7b8p5-7-5|
D|--------------------|
A|--------------------|
E|--------------------|

G                        C
    Nós não vamos pagar nada
G                        C
    Nós não vamos pagar nada
         F
É tudo free
       C             F
Tá na hora agora é free
         C          Bb
Vamos embora dar lugar
               F
Pros "gringos" entrar
       Bb                E
Esse imóvel está pra alugar

(F#, G, G#, A)(riff)

Os estrangeiros eu sei que eles vão gostar
Tem o Atlântico, tem vista pro mar
A Amazônia é o jardim do quintal
E o dólar dele paga o nosso mingau
G                        C
    Nós não vamos pagar nada
G                        C
    Nós não vamos pagar nada
         F
É tudo free
       C            F
Tá na hora agora é free
         C          Bb
Vamos embora dar lugar
               F
Pros "gringos" entrar
            Bb                E
Pois esse imóvel está pra alugar
G                        C
    Nós não vamos pagar nada
G                        C
    Nós não vamos pagar nada
          F
Agora é free
       C             F
Tá na hora é tudo free
         C        Bb
Vamos embora dar lugar
            F
Pros outros entrar
            Bb                E
Pois esse imóvel está pra alugar

Clipes

Cifra Club Pro

Aproveite o Cifra Club com benefícios exclusivos e sem anúncios
7 dias grátis
Cifra Club Pro
Aproveite o Cifra Club com benefícios exclusivos e sem anúncios
7 dias grátis