busca

Ângela

Raul Seixas

Tom: D
Intro: E  D  D#º  A  F#m  B7  E7

     E                              D              D#º
E|------------------------------------------------------------------|
B|------------------------------------------------------------------|
G|-----------------------------------------14----16b18r16b18~-------|
D|-----------------14~---17r16p14-16~--------16---------------------|
A|-----------14h16--------------------------------------------------|
E|--12-14/16--------------------------------------------------------|

               A                        F#m
E|-----------------------------------------------------------------|
B|-----------17b19r17b19~--19r17-15-17-----------------------------|
G|-18r16p14---------------------------16b17r16--14h16p14---14------|
D|------------------------------------------------------16----16~/-|
A|-----------------------------------------------------------------|
E|-----------------------------------------------------------------|
 
    B7                   E7
E|-----------------------------------------------------------------|
A|-----------------------------------------------------------------|
D|--------14-14----14--16b18-16b18-14-14~--------------------------|
G|----/16-------16-------------------------------------------------|
B|-----------------------------------------------------------------|
E|-----------------------------------------------------------------|

F#m
Mesmo que me aperte
essa sensação sem nome

Ou que me faça engolir
                         E
a seco a minha sede é de Angela
D      D#°  A       F#m B7 E7
Angela,     Angela
   F#m
Ou quantas vezes eu que quis negar

Mas o meu rio só corria em direção

Ao mar, em direção
          E
Ao mar de Angela
D      D#°  A
Angela,     Angela

Em                   A
Provar do meu leite agora
   Em               A      A5+
O gosto da minha vitoria
       Bm
Do meu amor,
                 E    C#7
do meu amor por mim

F#m
Eu me achava o rei do fogo e dos trovões

Eu assisti meu trono desabar
                        E
Cedendo as tentações de Angela
D      D#°  A
Angela,     Angela

Ah.....

Solo: G  D  G  D    A7  D  F#m  C#7

                   G                              D
E|-----------------------------------------------------------------|
B|----------------------------------------------15b17~-17r15p12----|
G|-14-18r16p14---------------12-14b16~-16r14p12--------------------|
D|---------------------12h14---------------------------------------|
A|---------------12h14---------------------------------------------|
E|-----------------------------------------------------------------|

                G                                D
E|------------19r17p15---------------------------------------------|
B|-15b17r15~-----------17-15h17-15~--------------------------------|
G|---------------------------------12-16r14p12-11~-12h11-----------|
D|------------------------------------------------------12------12~|
A|---------------------------------------------------------12-14---|
E|-----------------------------------------------------------------|

                                             A7
E|-----------------------------------------------------------------|
B|-12-13-15b17r15b17~-17r15-13-12~--12-13-12-----------------------|
G|-------------------------------------------14b16r14~--16r14p12---|
D|--------------------------------------------------------------14~|
A|-----------------------------------------------------------------|
E|-----------------------------------------------------------------|

                      D                          F#m
E|-----------------------------------------------------------------|
B|-----------------------------------------------------------------|
G|-12-------------------------7-9h11~--11r9p7--14b16r14b16~--16r14-|
D|-12h14-12-------------7-7h9--------------------------------------|
A|----------14~/----7h9--------------------------------------------|
E|-----------------------------------------------------------------|

                      C#7
E|-----------------------------------------------------------------|
B|-----------------------------------------------------------------|
G|-11h14p11~---11r9p7~---------------------------------------------|
D|-----------------------------------------------------------------|
A|-----------------------------------------------------------------|
E|-----------------------------------------------------------------|

   F#m
Ou minha espada erguida para a guerra

Com toda fúria que ela encerra no entanto é tão doce
tão doce
    E       D         A
Pra Angela, Angela,  Angela.

Clipes