busca

Canceriano Sem Lar

Raul Seixas

Tom: C
 Intro: C7 F7 C7 F7 C7 G7 F7 C7 G7
|-----------------|------------------------|-13b--13-13-13----------|
|-------13----15b-|-15b--15s13----13-13-15-|---------------13-13-13-|
|-12/14----14-----|------------14----------|------------------------|
|-----------------|------------------------|------------------------|
|-----------------|------------------------|------------------------|
|-----------------|------------------------|------------------------|

|-13b-13----------|-11--8----8-10-|----------------------------------------|
|--------13-13-13-|-------10------|-11b-11---8-----------------------------|
|-----------------|---------------|------------10---11b-11b-11b--10~~------|
|-----------------|---------------|----------------------------------10-10-|
|-----------------|---------------|----------------------------------------|
|-----------------|---------------|----------------------------------------|

|------8-----------------|
|----8---10-8------------|
|-8/9---------9b---------|
|----------------8p10-10-|
|------------------------|
|------------------------|

 Fill 1                           Fill 2          Fill 3
|--------------------------------|--------------|-13b------------|
|-------13----13----15b-15b-13~~-|-13~----13----|------13-13-13\-|
|-12/14----14----14--------------|-----14----14-|----------------|
|--------------------------------|--------------|----------------|
|--------------------------------|--------------|----------------|
|--------------------------------|--------------|----------------|

 Fill 4                 Fill 5
|----------------------|-13b-13-11----------|
|----13----13-15b-13~~-|-----------13-11-13-|
|-14----14-------------|--------------------|
|----------------------|--------------------|
|----------------------|--------------------|
|----------------------|--------------------|

Solo Pt 1
|--------------|--------------------------|-13b~-13-11-13b-13----------|
|----13-13-15b-|-15b-15b-15b----13-13-15\-|-------------------11-13-13-|
|-14-----------|-------------14-----------|----------------------------|
|--------------|--------------------------|----------------------------|
|--------------|--------------------------|----------------------------|
|--------------|--------------------------|----------------------------|

|-13b----10-------|---|'''''''''''''|---------------------|
|-----13----10-13-|-11b-11-11-11-11-p11-11b-8----8---8----|
|-----------------|---------------------------11b-11b-11b-|
|-----------------|---------------------------------------|
|-----------------|---------------------------------------|
|-----------------|---------------------------------------|

|--------------------------|-----8----------------------------|
|--------------------------|----8---10-8----------------------|
|-9-11-9-11b-11-11-9-------|-8/9---------9b------9p10---------|
|--------------------11-11-|----------------8p10------8p10-10-|
|--------------------------|----------------------------------|
|--------------------------|----------------------------------|

Solo Pt 2
|-------------------------------------|-----------------------------|
|-------------------------------------|-----------------------------|
|-10b-10b-10b-8-----10b--8-------8-10-|-10b-10-8-------10b-8----10b-|
|---------------10---------10-10------|----------10-10-------10-----|
|-------------------------------------|-----------------------------|
|-------------------------------------|-----------------------------|

|-------------------------------------------|-13h-11b-11b-8---------------|
|-11-10-8-----------------------------------|---------------8-------------|
|---------10-8--------10-8---------8-8-8----|-----------------10b-8-10----|
|--------------10-9-8------10-8-10-------10-|--------------------------10-|
|-------------------------------------------|-----------------------------|
|-------------------------------------------|-----------------------------|

|-------8------8------------------|-13b-15-13b-15b15r-13-17b-17b-17b-|
|-----8---11-8---11-8-11b-11b-11b-|----------------------------------|
|-10b-----------------------------|----------------------------------|
|---------------------------------|----------------------------------|
|---------------------------------|----------------------------------|
|---------------------------------|----------------------------------|

Solo Final
|----------|-----17b17r-|-15b15b15b-13-----------/19191919\-|
|----13-13-|-15b--------|-------------13-13\----------------|
|-14-------|------------|-----------------------------------|
|---(4x)---|------------|-----------------------------------|
|----------|------------|-----------------------------------|
|----------|------------|-----------------------------------|


|-/15-13----------|-------------------------------|----------|
|--------13-13-13-|-15h13p15-15b-15b-15b-13p15h13-|----13-13-|
|-----------------|-------------------------------|-14-------|
|-----------------|-------------------------------|---(6x)---|
|-----------------|-------------------------------|----------|
|-----------------|-------------------------------|----------|

|------------------------------------------|-------------------------8h8~~~~-|
|---------------------11-10-8--------------|-10----------------------8h8~~~~-|
|-10b-10b-10b-8-10-8----------10-8-8h10----|-10-8h9----8----8h9------8h9~~~~-|
|---------------------------------------10-|--------10---10-----8h10-8h10~~~-|
|------------------------------------------|-------------------------8h10~~~-|
|------------------------------------------|-------------------------8h8~~~~-|

(Intro)
        C7
 Estou sentado em minha cama Tomando meu café prá fumar
        F7                                          C7
 Estou sentado em minha cama Tomando meu café prá fumar
           G7                        F7                 C7 (G7)
 Trancado dentro de mim mesmo Eu sou um canceriano sem lar
       C7                                                (Fill1)
 Estou sentado em minha cama Tomando meu café prá fumar
       F7                                           C7   (Fill2)
 Estou sentado em minha cama Tomando meu café prá fumar
         G7                       F7                C7 (G7)
 É, é, porém, mas, todavia Eu sou um canceriano sem lar
   C7
Eu tomo café pra mim não chorar Pergunto à nuvem preta quando o sol vai brilhar
       F7                                             C7   (Fill3)
Estou deitado em minha vida E o soro que me induz a lutar
         G7                 F7                    C7 (G7)
Estou na Clínica Tobias Tão longe do aconchego do lar

(solo)

   C7
Eu tomo café pra mim não chorar Pergunto à nuvem preta quando o sol vai brilhar
       C7                                              (Fill4)
 Estou sentado em minha cama Tomando meu café prá fumar
       F7                                           C7 (Fill5)
 Estou sentado em minha cama Tomando meu café prá fumar
          G7                          F7                 C7 (G7)
 Trancado dentro de mim mesmo  Eu sou um canceriano sem lar

(Solo Final)

Clipes

Cifra Club Pro

Aproveite o Cifra Club com benefícios exclusivos e sem anúncios
7 dias grátis
Cifra Club Pro
Aproveite o Cifra Club com benefícios exclusivos e sem anúncios
7 dias grátis