Maluco Beleza

Raul Seixas

Am
123
X02210
C
123
X32010
Dm
123
XX0231
E7
12
020100
F
234
133211
G
123
320003
G/B
12
X2003X
G7
123
320001
Tom: G
[Intro]

#1t1#         Am     G       C
#1t2#E|-0--------1-0-----------X---------X-------|
B|---3-1--------3-0-1-3-1-X-1-----1-X-------|
G|-------2------0-------0-X-0-----0-X-------|
D|-------2------0-------2-X-2-----2-X-------|
A|-------0------2-------3-X---3-3---X-------|
E|--------------3---------X---------X-------|#/1t2##/1t1#

#2t1##2t2#E|-5\3-3---X---------X----------------------|
B|-------1-X-1-----1-X-1--------------------|
G|-------0-X-0-----0-X-0--------------------|
D|-------2-X-2-----2-X-2--------------------|
A|-----3---X---3-3---X---3------------------|
E|---------X---------X----------------------|#/2t2##/2t1#

[Primeira Parte]

Parte 1 de 8

#3t1#   C                   G/B
#3t2#E|-----X---------X---------X---------X------|
B|---1-X-1-----1-X-1-----3-X-3-----3-X-3----|
G|---0-X-0-----0-X-0-----0-X-0-----0-X-0----|
D|---2-X-2-----2-X-2-----0-X-0-----0-X-0----|
A|-3---X---3-3---X---3-2---X---2-2---X---2--|
E|-----X---------X---------X---------X------|#/3t2##/3t1#

Parte 2 de 8

#4t1#   Am                  F
#4t2#E|-----X---------X---------X---------X------|
B|---1-X-1-----1-X-1-------X---------X------|
G|---2-X-2-----2-X-2-----2-X-2-----2-X-2----|
D|---2-X-2-----2-X-2-----3-X-3-----3-X-3----|
A|-0---X---0-0---X---0---3-X-3-----3-X-3----|
E|-----X---------X-----1---X---1-1---X---1--|#/4t2##/4t1#

Parte 3 de 8

#5t1#   G                   C
#5t2#E|-----X---------X---------X---------X------|
B|---0-X-0-----0-X-0-----1-X-1-----1-X-1----|
G|---0-X-0-----0-X-0-----0-X-0-----0-X-0----|
D|---0-X-0-----0-X-0-----2-X-2-----2-X-2----|
A|-----X---------X-----3---X---3-3---X---3--|
E|-3---X---3-3---X---3-----X---------X------|#/5t2##/5t1#

Parte 4 de 8

#6t1#   G
#6t2#E|-----X---------X--------------------------|
B|---0-X-0-----0-X-0------------------------|
G|---0-X-0-----0-X-0------------------------|
D|---0-X-0-----0-X-0------------------------|
A|-----X---------X--------------------------|
E|-3---X---3-3---X---3----------------------|#/6t2##/6t1#

Parte 5 de 8

#7t1#   C                   G/B
#7t2#E|-----X---------X---------X---------X------|
B|---1-X-1-----1-X-1-----3-X-3-----3-X-3----|
G|---0-X-0-----0-X-0-----0-X-0-----0-X-0----|
D|---2-X-2-----2-X-2-----0-X-0-----0-X-0----|
A|-3---X---3-3---X---3-2---X---2-2---X---2--|
E|-----X---------X---------X---------X------|#/7t2##/7t1#

Parte 6 de 8

#8t1#   Am                  F
#8t2#E|-----X---------X---------X---------X------|
B|---1-X-1-----1-X-1-------X---------X------|
G|---2-X-2-----2-X-2-----2-X-2-----2-X-2----|
D|---2-X-2-----2-X-2-----3-X-3-----3-X-3----|
A|-0---X---0-0---X---0---3-X-3-----3-X-3----|
E|-----X---------X-----1---X---1-1---X---1--|#/8t2##/8t1#

Parte 7 de 8

#9t1#   G                   C
#9t2#E|-----X---------X---------X---------X------|
B|---0-X-0-----0-X-0-----1-X-1-----1-X-1----|
G|---0-X-0-----0-X-0-----0-X-0-----0-X-0----|
D|---0-X-0-----0-X-0-----2-X-2-----2-X-2----|
A|-----X---------X-----3---X---3-3---X---2--|
E|-3---X---3-3---X---3-----X---------X------|#/9t2##/9t1#

Parte 8 de 8

#10t1#   Am
#10t2#E|-----X---------X--------------------------|
B|---1-X-1-----1-X-1------------------------|
G|---2-X-2-----2-X-2------------------------|
D|---2-X-2-----2-X-2------------------------|
A|-0---X---0-0---X---0----------------------|
E|-----X---------X--------------------------|#/10t2##/10t1#

    C               G/B
Enquanto você se esforça pra ser
Am                F
   Um sujeito normal
G                 C   G
  E fazer tudo igual
C                    G/B
Eu do meu lado aprendendo a ser louco
Am              F
   Um maluco total
G              C   Am
  Na loucura real

[Segunda Parte]

Dm                      G
   Controlando a minha maluquez
Dm                      G
   Misturada com minha lucidez

[Refrão]

       C   E7
Vou ficar
              F             G
Ficar com certeza maluco beleza
          C   E7
Eu vou ficar
              F              G   G7
Ficar com certeza maluco beleza

[Primeira Parte]

C                    G/B
Esse caminho que eu mesmo escolhi
Am                 F
   É tão fácil seguir
G                  C   Am
  Por não ter onde ir

[Segunda Parte]

Dm                      G
   Controlando a minha maluquez
Dm                      G
   Misturada com minha lucidez

[Solo] C  E7  F  G  C  Am  Dm

#11t1#         C      E7
#11t2#E|-12/15\8~---8----10/12-12-12--------------|
B|----------8---9~--------------------------|
G|------------------------------------------|
D|------------------------------------------|
A|------------------------------------------|
E|------------------------------------------|#/11t2##/11t1#
#12t1#     F
#12t2#E|---13\12----------------------------------|
B|---------13\10----------------------------|
G|------------------------------------------|
D|------------------------------------------|
A|------------------------------------------|
E|------------------------------------------|#/12t2##/12t1#

#13t1#      G                  C            
#13t2#E|-------13/15~\13-13-13-13\12\10-----------|
B|-10/12------------------------------------|
G|------------------------------------------|
D|------------------------------------------|
A|------------------------------------------|
E|------------------------------------------|#/13t2##/13t1#

#14t1#          Am       Dm
#14t2#E|------------5~----------------------------|
B|-13~-13\3/5----5/3~-----------------------|
G|------------------------------------------|
D|------------------------------------------|
A|------------------------------------------|
E|------------------------------------------|#/14t2##/14t1#

[Segunda Parte]

Dm                      G
   Controlando a minha maluquez
Dm                      G
   Misturada com minha lucidez

[Refrão]

       C   E7
Vou ficar
              F             G
Ficar com certeza maluco beleza
          C   E7
Eu vou ficar
              F              G
Ficar com certeza maluco beleza

         ( C  E7  F  G )
Eu vou ficar
Composição: Claudio Roberto / Raul SeixasColaboração e revisão: Gustavo CunhaEduardo R.LacerdaVitor MedeirosErivaldo Avelinoe mais 7
Videoaula Maluco Beleza (aula de violão completa)