busca

Maluco Beleza

Raul Seixas

Tom: C
e|-------------------------------------------------------|
B|-------------------------------------------------------|
G|-------------------------------------------------------| (2x)
D|-------------------------------------------------------|
A|-----------------10--------------------7---------------|
E|-3-8-8-8-8-10-12----12-10-8--3-3-3-3-3-----------------|

e|--------------------------------------------|
B|--------------------------------------------|
G|--------------------------------------------|
D|--------------------------------------------|
A|-5-5-5-3-3----------5-5-5-3-3-3-7-5-5-3-3-3-|
E|-----------5-5-3-3--------------------------|

e|----------------------------------------------------------|
B|----------------------------------------------------------|
G|----------------------------------------------------------|
D|----------------------------------------------------------|
A|-7-7-7-8-5-3-3-3-5-3-3------------7-7-7-7-5-5-3-3-3-5-3-3-|
E|------------------------3-3-3-3-3-------------------------|

e|------------------------------------------------------|
B|------------------------------------------------------|
G|------------------------------------------------------| (2x)
D|------------------------------------------------------|
A|-----------------10-------------------8------------7--|
E|-3-8-8-8-8-10-12----12-10-8-5-5-5-5-5----3-3-3-3-3----|

Clipes

Cifra Club Pro

Aproveite o Cifra Club com benefícios exclusivos e sem anúncios
7 dias grátis
Cifra Club Pro
Aproveite o Cifra Club com benefícios exclusivos e sem anúncios
7 dias grátis