busca

Medo da Chuva

Raul Seixas

Tom: D
[Intro] A7  D  G  G5/F#

[Parte 1 de 6]

E|----------------------------------------------------|
B|-9/10-10-10-5-5-5-5-7--7/8-8-8-8-7-5-3--------------|
G|----------------------------------------------------|
D|-6/7--7--7--2-2-2-2-4--4/5-5-5-5-4-2-0--------------|
A|----------------------------------------------------|
E|----------------------------------------------------|

[Parte 2 de 6]

E|-2------2------3p2----------------------------------|
B|------3------3-----3--------------------------------|
G|----2------2---------2------------------------------|
D|----------------------------------------------------|
A|----------------------------------------------------|
E|----------------------------------------------------|

[Parte 3 de 6]

E|-9/10-10-9-9-7-5------5-----------------------------|
B|------------------5/7---5---------------------------|
G|-9/11-11-9-9-7-6------------------------------------|
D|----------------------------------------------------|
A|----------------------------------------------------|
E|----------------------------------------------------|

[Parte 4 de 6]

E|-7/9-7-5-----2---3p2-----2------2----3p2------2-----|
B|-----------3---------3--------3-----------3---------|
G|-7/9-7-6-2-----2-------2----2------2--------2-------|
D|----------------------------------------------------|
A|----------------------------------------------------|
E|----------------------------------------------------|

[Parte 5 de 6]

E|-3--------------------------------------------------|
B|-3--------3-----------------------------------------|
G|-0--0-2/4---4\2-0-2-0-2-2--2-4~---------------------|
D|-0--------------------------------------------------|
A|-2--------------------------------------------------|
E|-3--------------------------------------------------|

[Parte 6 de 6]

E|-------10-------14-------10------8-----7------5----3|
B|----------------------------------------------------|
G|-10/11----11/14----14\11----11\9---9\7----7\5---5\4-|
D|----------------------------------------------------|
A|----------------------------------------------------|
E|----------------------------------------------------|

D                                          A7
  É pena Que você pense que eu sou seu escravo
                                              D
Dizendo que eu sou seu marido e não posso partir
       G                                      F#m          Bm
Como as pedras imóveis na praia eu fico ao teu lado sem saber
      Em                   A7                  D  D7
Dos amores que a vida me trouxe eu não pude viver

       G                                     D
Eu perdi o meu medo, meu medo, meu medo da chuva
         G                                   D
Pois a chuva voltando pra terra traz coisas do ar
      G                                     D
Aprendi o segredo, o segredo, o segredo da vida
        A7                                    D
Vendo as pedras que choram sozinhas no mesmo lugar

       D                                         A7
E não posso entender tanta gente aceitando a mentira
                                                D
De que os sonhos desfazem aquilo que o padre falou
         G                                     F#m         Bm
Porque quando eu jurei meu amor eu traí a mim mesmo, hoje eu sei
         Em                 A7                   D        D7
Que ninguém nesse mundo é feliz tendo amado uma vez, uma vez

       G                                     D
Eu perdi o meu medo, meu medo, meu medo da chuva
         G                                   D
Pois a chuva voltando pra terra traz coisas do ar
      G                                     D
Aprendi o segredo, o segredo, o segredo da vida
        Em                     A7              D
Vendo as pedras que choram sozinhas no mesmo lugar
        Em                     A7              D
Vendo as pedras que choram sozinhas no mesmo lugar
        Em                     A7              D    D7 
Vendo as pedras que sonham sozinhas no mesmo lugar

[Solo]

E|----------------------------------------2-----------|
B|----------------------------------------3-----------|
G|-------------7-7----7h9-7-----------7---2-----------|
D|------5-7/9------9--------9/7-5-7/9-----0-----------|
A|-5-7------------------------------------------------|
E|----------------------------------------------------|

Clipes

Cifra Club Pro

Aproveite o Cifra Club com benefícios exclusivos e sem anúncios
7 dias grátis
Cifra Club Pro
Aproveite o Cifra Club com benefícios exclusivos e sem anúncios
7 dias grátis