busca

Meu Amigo Pedro

Raul Seixas

Tom: G
[Intro] G
            G
E|---------3-3---3-3--3-3-3-3-3-3----------|
B|---------0-0---0-0--1-0-1-0-0-0----------|
G|-------0-0-0---0-0--0-0-0-0-0-0----------|
D|-0-0h2---0-0---0-0--0-0-0-0-0-0----------|
A|-----------------------------------------|
E|---------3-3---3-3--3-3-3-3-3-3----------|

[Primeira Parte]

            G
E|---------3-3---3-3--3-3-3-3-3-3----------|
B|---------0-0---0-0--1-0-1-0-0-0----------|
G|-------0-0-0---0-0--0-0-0-0-0-0----------|
D|-0-0h2---0-0---0-0--0-0-0-0-0-0----------|
A|-----------------------------------------|
E|---------3-3---3-3--3-3-3-3-3-3----------|
    C        G
E|-3-3-3-3--3-3---3-3--3-3-3-3-3-3---------|
B|-1-1-1-1--0-0---0-0--1-0-1-0-0-0---------|
G|-0-0-0-0--0-0---0-0--0-0-0-0-0-0---------|
D|-2-2-2-2--0-0---0-0--0-0-0-0-0-0---------|
A|-3-3-3-3---------------------------------|
E|----------3-3---3-3--3-3-3-3-3-3---------|
    C        G
E|-3-3-3-3--3-3---3-3--3-3-3-3-------------|
B|-1-1-1-1--0-0---0-0--1-0-1-0-------------|
G|-0-0-0-0--0-0---0-0--0-0-0-0-------------|
D|-2-2-2-2--0-0---0-0--0-0-0-0---0---0---0-|
A|-3-3-3-3-------------------------0---2---|
E|----------3-3---3-3--3-3-3-3-3-----------|
    C
E|-3-3-3-3--3-3---3-3--3-3-3-3-------------|
B|-1-1-1-1--1-1---1-1--1-1-1-1-------------|
G|-0-0-0-0--0-0---0-0--0-0-0-0-------------|
D|-2-2-2-2--2-2---2-2--2-2-2-2-------------|
A|-3-3------0-----3-3------0---------------|
E|-----3-3----3--------3-3---3-------------|

    G
E|-3-3---3-3--3-3-3-3-3-3------------------|
B|-0-0---0-0--1-0-1-0-0-0------------------|
G|-0-0---0-0--0-0-0-0-0-0---------0--------|
D|-0-0---0-0--0-0-0-0-0-0--0-0h2-----------|
A|-----------------------------------------|
E|-3-3---3-3--3-3-3-3-3-3------------------|

  D                D7
E|-2-2---2-2-2-2----2-2---2-2-2-2----------|
B|-3-3---3-3-3-3----1-1---1-1-1-1----------|
G|-2-2---2-2-2-2----2-2---2-2-2-2----------|
D|-0-0---0-0-0-0----0-0---0-0-0-0----------|
A|-----------------------------------------|
E|-----------------------------------------|

  G                G7
E|-3-3---3-3-3-3----1-1---1-1-1-1----------|
B|-0-0---0-0-0-0----0-0---0-0-0-0----------|
G|-0-0---0-0-0-0----0-0---0-0-0-0----------|
D|-0-0---0-0-0-0----0-0---0-0-0-0----------|
A|-----------------------------------------|
E|-3-3---3-3-3-3----3-3---3-3-3-3----------|

 G                  C    G
Muitas vezes Pedro você fala
                        C   G
Sempre a se queixar da solidão
  C                            G
Quem te fez com ferro fez com fogo, Pedro
   D                      G
É pena que você não sabe não

                      C    G
Vai pro seu trabalho todo dia
                         C  G
Sem saber se é bom ou se é ruim
  C                           G
Quando quer chorar vai ao banheiro
 D                D7            G
Pedro, as coisas não são bem assim

                         C  G
Toda vez que eu sinto o paraíso
                    C    G
Ou me queimo torto no inferno
    C                        G
Eu penso em você meu pobre amigo
  D         D7               G  G7
Que só usa sempre o mesmo terno

[Refrão]

 C               D             G
Pedro onde você vai eu também vou
 C               D             G
Pedro onde você vai eu também vou
           Em        A7 D  G
Mas tudo acaba onde co_me_çou

[Segunda Parte]

 G                    C    G
Tente me ensinar das tuas coisas
                         C       G
Que a vida é séria e a guerra é dura
 C                           G
Mas, se não puder cale essa boca, Pedro
   D                       G
E deixa eu viver minha loucura

                      C      G
Lembro Pedro aqueles velhos dias
                         C       G
Quando os dois pensavam sobre o mundo
 C                     G
Hoje eu te chamo de careta, Pedro
D                    G
E você me chama vagabundo

[Refrão]

 C               D             G
Pedro onde você vai eu também vou
 C               D             G
Pedro onde você vai eu também vou
           Em        A7 D  G
Mas tudo acaba onde co_me_çou

[Terceira Parte]

                   C    G
Todos os caminhos são iguais
                          C    G
O que leva à glória ou a perdição
 C                          G
Há tantos caminhos, tantas portas
 D                       G
Mas, somente um tem coração
                       C    G
E eu não tenho nada a te dizer
                      C       G
Mas, não me critique como eu sou
 C                      G
Cada um de nós é um universo, Pedro
D                       G
Onde você vai eu também vou

[Refrão]

 C               D             G
Pedro onde você vai eu também vou
 C               D             G
Pedro onde você vai eu também vou
           Em        A7 D  G
Mas tudo acaba onde co_me_çou
         Em        A7 D  G
E tudo acaba onde co_me_çou

[Final] G

Clipes

Cifra Club Pro

Aproveite o Cifra Club com benefícios exclusivos e sem anúncios
7 dias grátis
Cifra Club Pro
Aproveite o Cifra Club com benefícios exclusivos e sem anúncios
7 dias grátis