busca

Um Messias Indeciso

Raul Seixas

Tom: D
[Intro] A  A9  A  A9
        G  D  A
                                           
     A         A9        A         A9        G   D  D4  D  A
E|------9---------7---------9---------7----3-3-2-2h3p2-0-|
B|----10-10-----10-10-----10-10-----10-10--3-3-3-3-----2-|
G|---9---------9---------9---------9-------0-0-2-2-----2-|
D|-----------------------------------------0-0-0-0-----2-|
A|-0---------0---------0---------0---------2-2---------0-|
E|-----------------------------------------3-3-----------|

A
Certa vez houve um homem
                        B/A
Comum como um homem qualquer
Jogou pelada descalço

     A                           B/A
E|------9--------9--------9-------7-----7-----7----------|
B|----10-10----10-10----10-10----7-7---7-7---7-7---------|
G|---9--------9--------9--------8-----8-----8------------|
D|-------------------------------------------------------|
A|-0--------0--------0---------0-----0-----0-------------|
E|-------------------------------------------------------|
   ↓ ↑ ↓ ↑     ↓                                            


     G   D  D4  D  A
E|-3-3-2-2h3p2-0-----------------------------------------|
B|-3-3-3-3-----2-----------------------------------------|
G|-0-0-2-2-----2-----------------------------------------|
D|-0-0-0-0-----2-----------------------------------------|
A|-2-2---------0-----------------------------------------|
E|-3-3---------------------------------------------------|

     G       D              A
Cresceu e formou-se em ter fé

Mas nele havia algo estranho
                          B/A
Lembrava ter vivido outra vez
Em outros mundos distantes
     G          D       A
E assim acreditando se fez
(Sim)

E acreditando em si mesmo
                                 B/A
Tornou-se o mais sábio entre os seus
E o povo pedindo milagres
   G         D        A
Chamava esse homem de Deus

E7             A
Ah! Quantas ilusões
E7             A
Ah! Quantas ilusões
    G     D       A
Nas luzes do arrebol
E7                 A
Quantos segredos terá?
E7                 A
Quantos segredos terá?

E enquanto ele trabalhava
                    B/A
Na sua tarefa escolhida
A multidão se aglomerava
       G        D       A
Perguntando segredos da vida

E ele falou simplesmente
                      B/A
Destino é a gente que faz
Quem faz o destino é a gente
    G        D          A
Na mente de quem for capaz

E vendo o povo confuso
                                    B/A
Que terrível, cada vez mais lhe seguia
Fugiu pra floresta sozinho
    G           D           A
Pra Deus perguntar pr'onde ia

E7             A
Ah! Quantas ilusões
E7             A
Ah! Quantas ilusões
    G     D       A
Nas luzes do arrebol
E7                 A
Quantos segredos terá?
E7                 A
Quantos segredos terá?

Mas foi sua própria voz que falou
                     B/A
Seja feita a sua vontade
Siga o seu próprio caminho
G         D          A
Pra ser feliz de verdade
E aquela voz foi ouvida
                   B/A
Por sobre morros e vales
Ante ao messias de fato

    B/A*             B/A
E|----7-9p7-9p7-7-----7------7---------------------------|
B|---7--7------------7-7----7-7--------------------------|
G|--8---------------8------8-----------------------------|
D|-------------------------------------------------------|
A|-0---------------0------0------------------------------|
E|-------------------------------------------------------|

       G         D      A
Que jamais quis ser adorado
       G         D      A
Que jamais quis ser adorado, e!

E7             A
Ah! Quantas ilusões
E7             A
Ah! Quantas ilusões
    G     D       A
Nas luzes do arrebol
E7                 A
Quantos segredos terá?
E7                 A    D  A
Quantos segredos terá?

Clipes