busca

Se Ainda Existe Amor

Raul Seixas

Tom: A
Intro: A


E|-9-------7-------9-------10------9-------7-------9----|
B|-10------10------10------10------10------10------10---|
G|-9-------9-------9-------9-------9-------9-------9----|    2x
D|-7----------------------------------------------------|
A|------------------------------------------------------|
E|------------------------------------------------------|

A
Você de uns dia pra cá

Vem mudando demais

O seu modo de ser

A
Tem muita tristeza no olhar

Mas, evita me olhar
                          Bm
Para eu não perceber

D                             E
Se você já não me ama
                       A  A7
Me diz logo agora
D                             E
Eu já não quero surpresas
                 A                E
Pra última hora, fale agora

 A
Se ainda existe amor
                      C#m
Olhe bem pra mim
                  D                   E
E me diz enfim que eu sou teu

 A
Se ainda existe amor
                            C#m
Pegue em minha mão
                 D                   E
E me diz então que me quer

A
Eu vim conversar com você

Procurando saber

O que foi que eu lhe fiz

A
Eu peço não deixe acabar

Esse amor que você
                              Bm
Dedicou sempre a mim

D                            E
Sei que o amor é igual
                                  A  A7
Como o tempo que voa
D                            E
Se não lhe dei o bastante
                            A
Meu bem me perdoa
            E
Me perdoa

 A
Se ainda existe amor
                            C#m
Pegue em minha mão
                 D                   E
E me diz então que me quer

 A
Se ainda existe amor
                      C#m
Olhe bem pra mim
                  D                   E
E me diz enfim que eu sou teu


E|-9-------7-------9-------10------9-------7-------9----|
B|-10------10------10------10------10------10------10---|
G|-9-------9-------9-------9-------9-------9-------9----|    2x
D|-7----------------------------------------------------|
A|------------------------------------------------------|
E|------------------------------------------------------|


A
Você de uns dia pra cá

Vem mudando demais

O seu modo de ser

A
Tem muita tristeza no olhar

Mas, evita me olhar
                          Bm
Para eu não perceber

D                             E
Se você já não me ama
                       A  A7
Me diz logo agora
D                             E
Eu já não quero surpresas
                 A                E
Pra última hora, fale agora

 A
Se ainda existe amor
                            C#m
Pegue em minha mão
                 D                   E
E me diz então que eu sou teu

 A
Se ainda existe amor
                      C#m
Olhe bem pra mim
                  D                   E
E me diz enfim que me quer

 A
Se ainda existe amor
                            C#m
Pegue em minha mão
                 D                   E
E me diz então que eu sou teu...

Clipes