A
123
X02220
A7
12
X02020
D
123
XX0232
D4
123
XX0233
D9
12
XX0230
Em
12
022000
F#m
34
244222
G
123
320003
Gm6
1234
3X233X
Tom: G
[Intro] D  D4  D9  G

#1t1#    D     D4  D  D9  D     D4  D  D9  D  D9  D   G
#1t2#E|-2-2-2--3-2-0--2-2-2--3-2-0--2-0-2/---------------------------|
B|-3-3-3--3-3-3--3-3-3--3-3-3--3-3-3/---------------------------|
G|-2-2-2--2-2-2--2-2-2--2-2-2--2-2-2/---------------------------|
D|-0------0------0------0------0--------------------------------|
A|--------------------------------------------------------------|
E|--------------------------------------3-----------------------|#/1t2##/1t1#

#2t1#    D     D4  D  D  D9
#2t2#E|-2-2-2--3p2--2p0----------------------------------------------|
B|-3-3-3--3-3--3-3----------------------------------------------|
G|-2-2-2--2-2--2-2----------------------------------------------|
D|-0-0-0--0-0--0-0----------------------------------------------|
A|--------------------------------------------------------------|
E|--------------------------------------------------------------|#/2t2##/2t1#

G                     A      G
You were born at the ending
                     A    G
As the curtain came down
                    F#m                     
I can see you're confused girl 
             G
But it's all right

               D  D4  D  D  D9
It's only the chimes
             A
Announcing a new time
            G
You see now
                        A       G
Boats are cruising the deserts
                       A       G
Oceans cracked by the heat
                    F#m
People drowning in raindrops
             G
But it's all right
              D  D4  D  D  D9
It's not a defeat
              A
Stand on your own feet
      Em                   G
Right now the sun doesn't shine
                F#m
He's loaded on wine
       Em                   G
Though I can laugh in the storm
              F#m
Because I was born
         G
When the sun used to
Gm6       D  D4  D  D  D9
Shine in June

[Solo] G  A  G  A 
       F#m  G  D  A7

      Em                   G
Right now the sun doesn't shine
                F#m
He's loaded on wine
       Em                   G
Though I can laugh in the storm
              F#m
Because I was born
         G
When the sun used to
Gm6       D9  D  D9  D
Shine in June
Composição: Raul SeixasColaboração e revisão: Arnaldo OliveiraBryan SchmitzFlavioIURI FRAGAe mais 2