busca

Tu És o MDC da Minha Vida

Raul Seixas

  (A)                 (D)              (F)                   (E)

G|------------------------------------------------------------------------------------|
D|--------------------------------------------10-10-----10-------9-9------------------| 
A|---------------------5-5-----5-5---5---/8-8-------8-8----8/7-7-----77-55------------| (2x)    
E|-5-5-----5-5---5---------5-5-----5---5-----------------------------------88-77-5----|                                                                                                  
B|-----5-5-----5---5------------------------------------------------------------------|   

(obs: Caso não tenha a 5º corda (Sí), é só tocar a 4º corda (Mí) solta)

  (A)              (F#)      (B)     (D)     (E)
G|-------------------------------------------------------|
D|-------------------------------4-------7-------9-------|
A|-----7-7-----7-------4---4h2-2---2/5-5---5/7-7---7-----| (2x)
E|-5-5-----5-5---5/2-2---2-------------------------------| 
B|-------------------------------------------------------|


E vai fazendo isso até o final da musica.

pelos 5 mil auto-falantes eu vou mandar berrar o dia inteiro...

   (B)     (E)    (B)    (E)      (A)
G|-----------------------------------------------------------|
D|--------------------------------77-88-77-88-77-88-77-88-7--|
A|-2-------7-777---------7-777-------------------------------|
E|----------------7-777--------------------------------------|
B|-----------------------------------------------------------|

Clipes

Cifra Club Pro

Aproveite o Cifra Club com benefícios exclusivos e sem anúncios
Cifra Club Pro
Aproveite o Cifra Club com benefícios exclusivos e sem anúncios