busca

Bass Solo

Red Hot Chili Peppers

G|--22--22-----19----------------------------8------------- 
D|-----------------15-------------------10-------7-9--4--0- 
A|----------18-----------0------14---12-------------------- 
E|--------------------------0------------------------------ 
 
G|---------------------------------------------------------- 
D|--------------------------------17---18------------------- 
A|-------7--1-0---2--5--10---14-------------19-------------- 
E|-3-4-------------------------------------------19--18---14 
 
G|----------------------------------------------------------------------- 
D|-----------------------18--15--12/5------------------------------------ 
A|-------------------------------------1--2--3--8-4-1--0----------------- 
E|2h3-5/15--14--17-18-------------------------------------0--1-0-1h0-1h0- 
 
G|-4--1---7--------------------------------------2-5/10- 
D|------------2-5--------------------------------------- 
A|------------------6--6----------------2-2-3-2--------- 
E|------------------------4---7--8--5-1----------------- 
 
G|---------------------------------------------12------------------------ 
D|-----------------------------------------10---------------------------- 
A|-----------------------------1---1-2--5------------10--9--7--5--------- 
E|-2/14---2/5/10/4--2h5--3h6--------------------------------------3/15p--

Clipes