busca

Black Cross

Red Hot Chili Peppers

Tom: A
Hyde park' album
Enjoy
(Standard Tuning)
Intro/Verse
------------------------------------------|
------------------------------------------|
------------------------------------------|
----------------8-8-----------------------|
--7-7-7-7--8-8--6-6----7-7-7-7--5-5--7-7--|
--5-5-5-5--6-6---------5-5-5-5--3-3--5-5--|  X4

Chorus
----------------------5-5-5-X-5-5-5---|
----------------------5-5-5-X-5-5-5---|
--------------------------------------|
--------------------------------------|
-12-11-10-9-8-7-6-5-------------------|
-10--9--8-7-6-5-4-3-------------------|  X4

Outro pt 1
---------------------------|
---------------------------|
---------------------------|
--------8-8----------12-12-|
--7--8--6-6--10--13--10-10-|
--5--6--------8--11--------|  X2

Outro pt 2
-------------------------------------|
-------------------------------------|
-------------------------------------|
--------8-8--------------------------|
--7--8--6-6--10-13-10-13-10-13-10-13-|
--5--6--------8-11--8-11--8-11--8-11-|  X2

---
---
---
---
-7-
-5- End on

This whole part is played twice through, then john does an improvised
section before it is repeated one more time but stops after one play of
'Outro pt 1'
Enjoy

Maxnixonharkin
C*

Clipes