busca

Buckle Down

Red Hot Chili Peppers

Tom: E
Intro:
       (8x)
E|---------|-------------------------------------------------|
B|---------|-------------------------------------------------|
G|---------|----12-11-10-------------------------------------|
D|---------|-------------------------------------------------|
A|-0--2--3-|-14----------------------------------------------|
E|---------|-------------------------------------------------|

   G7/9
E|-----------------------------------------------------------|
B|-10-10-10-10-10-10-10-10-10-10-10--------------------------|
G|-10-10-10-10-10-10-10-10-10-10-10--------------------------|
D|-9--9--9--9--9--9--9--9--9--9--9---------6-5-3-------------|
A|-10-10-10-10-10-10-10-10-10-10-10--------------5-----------|
E|-----------------------------------------------------------|
       (8x)
E|---------|-------------------------------------------------|
B|---------|-------------------------------------------------|
G|---------|---7-6-4-----------------------------------------|
D|---------|---5-4-2-----------------------------------------|
A|-0--2--3-|-------------------------------------------------|
E|---------|-------------------------------------------------|

Refrão:
           E7/9            (4x)
E|-----------------------------|-------------------------------------|
B|---------8-8-x-x-8-8-x-x-8-8-|-------------------------------------|
G|---------7-7-x-x-7-7-x-x-7-7-|-------------------------------------|
D|---------6-6-x-x-6-6-x-x-6-6-|-------------------------------------|
A|-5-4-3---7-7-x-x-7-7-x-x-7-7-|---5-4-3-----------------------------|
E|-3-2-1-0---------------------|---3-2-1-----------------------------|

Pós-Refrão:
E|-------------------------------------------------------------------|
B|-------------------------------------------------------------------|
G|-9----9-7-9-x-x-x-x-x-x-9---12-12-12-12-12---9--9-7-9-----12-14-14b|
D|-9----9-7-9-x-x-x-x-x-x-9---12-12-12-12-12---9--9-7-9-12/14--------|
A|-7----7-5-7-x-x-x-x-x-x-7---10-10-10-10-10---7--7-5-7--------------|
E|-------------------------------------------------------------------|

Solo 1:
E|-----------20r-20-17-------------------------------------20r-------|
B|---------------------20-17-20-20b--20-17---------------------------|
G|-----------------------------------------19-17---------------------|
D|-----------------------------------------------19~-22-19-----------|
A|-0-0-0-0-0---------------------------------------------------19-22-|
E|-------------------------------------------------------------------|

E|----------------22b------|
B|-------------------------|
G|-------------------------|
D|-19--19--19-22-----------|
A|---22--22----------------|
E|-------------------------|

Passagem: (1:52)
E|-------------------------|
B|-------------------------|
G|-12b---10-x-x-12b--------|
D|-----12------------------|
A|-------------------------|
E|-------------------------|

Solo 2: (2:41)
E|---------------------------------------------------20b--------|
B|-17-15-12--------------------------------------------------15~|
G|------------14-12--------------------12-14-14b----------------|
D|------------------14--12-14~---12/14--------------------------|
A|--------------------------------------------------------------|
E|--------------------------------------------------------------|

Solo 3: (2:52)

E|--------------12----------------|
B|----------15-----15-------------|
G|-------12------------12b--------|
D|---14---------------------14----|
A|--------------------------------|
E|--------------------------------|

Solo 4: (3:00)
E|--------------------------------|
B|--------------------------------|
G|-------------12-----------------|
D|-------12-14----14-12-----------|
A|-12-14-----------------14--10~--|
E|--------------------------------|

Final:
E|--------------------------------|
B|--------------------------------|
G|--------------------------------|
D|--------5-4-2-------------------|
A|-0-2-3--------------------------|
E|--------------3-2-1-0~----------|

Clipes

Cifra Club Pro

Aproveite o Cifra Club com benefícios exclusivos e sem anúncios
7 dias grátis
Cifra Club Pro
Aproveite o Cifra Club com benefícios exclusivos e sem anúncios
7 dias grátis