Am
123
X02210
Bb
1234
X1333X
C
1234
X3555X
Dm
234
X57765
F
234
133211
Tom: G
Introdução:

(Riff da introdução)

#1t1##1t2#E|----------------------------------------------------|
B|----------------------------------------------------|
G|----------------------------------------------------|
D|-10-10-10-10-10-10-10-10-10-10-10-10-10-10-10-10----|
A|----------------------------------------------------|
E|----------------------------------------------------|#/1t2##/1t1#

#2t1##2t2#E|----------------------------------------------------|
B|----------------------------------------------------|
G|----------------------------------------------------|
D|----------------------------------------------------|
A|-7-7-7-7-7-7-7-7-7-7-7-7-7-7-7-7--------------------|
E|----------------------------------------------------|#/2t2##/2t1#


Primeira Parte:

(Riff da Primeira Parte)

#3t1##3t2#E|----------------------------------------------------|
B|----------------------------------------------------|
G|----------------------------------------------------|
D|----------------------------------------------------|
A|-5-8-8-8-8-8-8-8------------------------------------|
E|-----------------8-8-8-8-8-8-8-8--------------------|#/3t2##/3t1#

#4t1##4t2#E|----------------------------------------------------|
B|----------------------------------------------------|
G|-------------------------9-9-7-7--------------------|
D|----------------------------------------------------|
A|-7-7-7-7-7-7-7-7-7-7-7-7----------------------------|
E|----------------------------------------------------|#/4t2##/4t1#

#5t1##5t2#E|----------------------------------------------------|
B|----------------------------------------------------|
G|----------------------------------------------------|
D|-10-10-10-10-10-10-10-10----------------------------|
A|-------------------------10-10-10-10-10-10-10-10----|
E|----------------------------------------------------|#/5t2##/5t1#

#6t1##6t2#E|----------------------------------------------------|
B|----------------------------------------------------|
G|----------------------------------------------------|
D|-----------------7-7-7-7-7-7-5-5--------------------|
A|-7-7-7-7-7-7-7-7-7-7-7-7-7-7-5-5--------------------|
E|----------------------------------------------------|#/6t2##/6t1#

#7t1##7t2#E|----------------------------------------------------|
B|----------------------------------------------------|
G|------------------9--9--9--9--9--9--9--9------------|
D|-3-3-3-3-3-3-3-3-10-10-10-10-10-10-10-10------------|
A|-3-3-3-3-3-3-3-3------------------------------------|
E|----------------------------------------------------|#/7t2##/7t1#

#8t1##8t2#E|----------------------------------------------------|
B|----------------------------------------------------|
G|-14-14-14-14-14-14-14-14-14-14-14-14-14-14-14-14----|
D|-14-14-14-14-14-14-14-14-14-14-14-14-14-14-14-14----|
A|----------------------------------------------------|
E|----------------------------------------------------|#/8t2##/8t1#

Standing in line

To see the show tonight

And there's a light on

Heavy glow

By the way I tried to say

I'll be there

Waiting for

Dani the girl

Is singing songs to me

Beneath the marquee

Overload

(Riff – Abafado)

#9t1##9t2#E|----------------------------------------------------|
B|----------------------------------------------------|
G|----------------------------------------------------|
D|-x-x-x-x-x-x-x-x------------------------------------|
A|-x-x-x-x-x-x-x-x------------------------------------|
E|-x-x-x-x-x-x-x-x------------------------------------|#/9t2##/9t1#


Segunda Parte:


Steakknife, Card Shark
                  (Passagem 1)
Con Job, Boot Cut
  Dm
Skin that flick

She's such a little DJ
 Dm
Get there quick

By street, but not the freeway
 Dm
Turn that trick

To make a little leeway
 Dm
Beat that nic
    (Passagem 1)
But not the way that we play
 Dm
Dog Town
  Dm
Blood Bath
 Dm
Rib Cage
 Dm
Soft Tail


Primeiro Refrão:

  F
Standing in line
         C
To see the show tonight
               Dm
And there's a light on

Heavy glow
 F           C
By the way I   tried to say
     Am
I'd be there
    Bb
Waiting for


Ponte:

(Riff - Abafado)


Terceira Parte:

Black Jack, Dope Dick
                      (Passagem 2)
Pawn Shop, Quick Pick
 Dm
Kiss that Dyke

I know you want to hold one
 Dm
Not on strike

But I'm about to bowl one
 Dm
Bite that mic

I know you never stole one
 Dm
Girls that like
   (Passagem 2)
A story so I told one
 Dm
Song Bird
 Dm
Main Line
 Dm
Cash Back
 Dm
Hard top


Segundo Refrão:

#10t1##10t2#E|----------------------------------------------------|
B|----------------------------------------------------|
G|----------------------------------------------------|
D|-10-10-10-10-10-10-10-10-10-10-10-10-10-10-10-10----|
A|----------------------------------------------------|
E|----------------------------------------------------|#/10t2##/10t1#

#11t1##11t2#E|----------------------------------------------------|
B|----------------------------------------------------|
G|----------------------------------------------------|
D|----------------------------------------------------|
A|-7-7-7-7-7-7-7-7-7-7-7-7-7-7-7-7--------------------|
E|----------------------------------------------------|#/11t2##/11t1#

#12t1##12t2#E|----------------------------------------------------|
B|----------------------------------------------------|
G|----------------------------------------------------|
D|----------------------------------------------------|
A|-5-8-8-8-8-8-8-8------------------------------------|
E|-----------------8-8-8-8-8-8-8-8--------------------|#/12t2##/12t1#

#13t1##13t2#E|----------------------------------------------------|
B|----------------------------------------------------|
G|-------------------------9-9-7-7--------------------|
D|----------------------------------------------------|
A|-7-7-7-7-7-7-7-7-7-7-7-7----------------------------|
E|----------------------------------------------------|#/13t2##/13t1#

#14t1##14t2#E|----------------------------------------------------|
B|----------------------------------------------------|
G|----------------------------------------------------|
D|-10-10-10-10-10-10-10-10----------------------------|
A|-------------------------10-10-10-10-10-10-10-10----|
E|----------------------------------------------------|#/14t2##/14t1#

#15t1##15t2#E|----------------------------------------------------|
B|----------------------------------------------------|
G|----------------------------------------------------|
D|-----------------7-7-7-7-7-7-5-5--------------------|
A|-7-7-7-7-7-7-7-7-7-7-7-7-7-7-5-5--------------------|
E|----------------------------------------------------|#/15t2##/15t1#

#16t1##16t2#E|----------------------------------------------------|
B|----------------------------------------------------|
G|------------------9--9--9--9--9--9--9--9------------|
D|-3-3-3-3-3-3-3-3-10-10-10-10-10-10-10-10------------|
A|-3-3-3-3-3-3-3-3------------------------------------|
E|----------------------------------------------------|#/16t2##/16t1#

#17t1##17t2#E|----------------------------------------------------|
B|----------------------------------------------------|
G|-14-14-14-14-14-14-14-14-14-14-14-14-14-14-14-14----|
D|-14-14-14-14-14-14-14-14-14-14-14-14-14-14-14-14----|
A|----------------------------------------------------|
E|----------------------------------------------------|#/17t2##/17t1#

Standing in line

To see the show tonight

And there's a light on

Heavy glow

By the way I tried to say

I'd be there

Waiting for

Dani the girl

Is singing songs to me

Beneath the marquee

Of her soul

By the way I tried to say

I'd be there

Waiting for


Quarta Parte:

Dm  (4x)

(Passagem 3)

Dm
Oh ah, kissed ya then I missed ya
Dm
Oh ah, kissed ya then I missed ya
Dm
Oh ah, kissed ya then I missed ya
Dm                (Passagem 3)
Oh ah, kissed ya then I missed ya
Dm
Oh ah, kissed ya then I missed ya
Dm
Oh ah, kissed ya then I missed ya
Dm
Oh ah, kissed ya then I missed ya
Dm
Oh ah


Refrão:

  F
Standing in line
         C
To see the show tonight
               Dm
And there's a light on

Heavy glow
 F           C
By the way I   tried to say
     Am
I'd be there
    Bb
Waiting for
 F
Dani the girl
       C
Is singing songs to me
             Dm
Beneath the marquee

Of her soul
 F           C
By the way I   tried to say
    Am
I know you
     Bb
From    before


Final:

  F
Standing in line
         C
To see the show tonight
               Dm
And there's a light on

Heavy glow
 F           C
By the way I   tried to say
     Am
I'd be there
    Bb      Dm
Waiting for


(Passagem 1)

#18t1##18t2#E|----------------------------------------------------|
B|-------13---13---13---13----------------------------|
G|----------------------------------------------------|
D|-x-x-x----x----x----x----x-x------------------------|
A|-x-x-x----x----x----x----x-x------------------------|
E|-x-x-x----x----x----x----x-x------------------------|#/18t2##/18t1#

(Passagem 2)

#19t1##19t2#E|----------------------------------------------------|
B|-------13-----13-13---13----------------------------|
G|----------------------------------------------------|
D|-x-x-x----x-x-------x----x-x------------------------|
A|-x-x-x----x-x-------x----x-x------------------------|
E|-x-x-x----x-x-------x----x-x------------------------|#/19t2##/19t1#

(Passagem 3)

#20t1##20t2#E|----------------------------------------------------|
B|-13-13---13-----------------------------------------|
G|----------------------------------------------------|
D|-------x----x-x-------------------------------------|
A|-------x----x-x-------------------------------------|
E|-------x----x-x-------------------------------------|#/20t2##/20t1#
Composição: Anthony Kiedis / Chad Smith / Flea / John FruscianteColaboração e revisão: Caroline LeroyVinícius Diasleo costaJoão Davançoe mais 6
Videoaula By The Way (aula de guitarra)