Tom: G
#1t1##1t2#E|--------------------------|
B|--------------------------|
G|-----------3-----------3--|
D|-----3---2-------3---2----|
A|---2---1-------2---1------|
E|-1-----------1------------|#/1t2##/1t1#

#2t1##2t2#E|-3-3-x-3-x-3---3-3-x-3-x-3---|
B|-3-3—x-3-x-3---3-3-x-3-x-3---|
G|-3-3—x-3-x-3---3-3-x-3-x-3---|repete
D|-----------------------------|
A|-----------------------------|
E|-----------------------------|#/2t2##/2t1#

On the boards, stitchin' time Get yours, got mine
In a minute I’ll be there Sit tight get square
You could do it at the hippodrome Slide back trombone
Anybody got a TV at home That’s right unknown
#3t1##3t2#E|-3-3-x-3-x-3---3-3-x-3-x-3---|
B|-3-3—x-3-x-3---3-3-x-3-x-3---|
G|-3-3—x-3-x-3---3-3-x-3-x-3---|repete
D|-----------------------------|
A|-----------------------------|
E|-----------------------------|#/3t2##/3t1#

When I pick up on that smell
Pick it up and run like hell
Little woman save me some
Better get up on your run
#4t1##4t2#E|-15-15-x-15-x-15---15-15-x-15-x-15---|
B|-15-15-x-15-x-15---15-15-x-15-x-15---|
G|-15-15-x-15-x-15---15-15-x-15-x-15---|repete
D|-------------------------------------|
A|-------------------------------------|
E|-------------------------------------|#/4t2##/4t1#

#5t1##5t2#E|-15-15-x-15-x-15---15-15-x-15-x-15---|
B|-15-15-x-15-x-15---15-15-x-15-x-15---|
G|-15-15-x-15-x-15---15-15-x-15-x-15---|repete
D|-------------------------------------|
A|-------------------------------------|
E|-------------------------------------|#/5t2##/5t1#

Chorus:
So much more than   Charlie's wakin' me
To my core and      Charlie's shakin' me
Tell my story       Charlie's makin' me
#6t1##6t2#E|-----------------|-------------------|
B|-----------------|-------------------|
G|-x-x-8-8-x-x-7-7-|-x-x-10-10-x-x-8-8-|
D|-x-x-8-8-x-x-8-8-|-x-x-10-10-x-x-8-8-|
A|-----------------|-------------------|
E|-----------------|-------------------|#/6t2##/6t1#
#7t1#Charlie's makin' me smile
#7t2#E|-----------------|---------------------------8--8—-8--8--8--8—-8-|
B|-----------------|-x-10-10-x-x-10-10-10-x-x-10-10-10-10-10-10-10-|
G|-x-x-8-8-x-x-7-7-|-x-10-10-x-x-10-10-10-x-x-10-10-10-10-10-10-10-|
D|-x-x-8-8-x-x-8-8-|-x-10-10-x-x-10-10-10-x-x----------------------|
A|-----------------|-----------------------------------------------|
E|-----------------|-----------------------------------------------|#/7t2##/7t1#

Everybody do the twist Get the message, on flea's fist
Move around like a scientist Lay down, get kicked
Big picture and it never lies Big daddy scooted by
Every wedding in disguise Some set, sometimes

When I pick up on that smell
Pick it up and run like hell
Little woman, sing me a song
Gotta get up on your run

#8t1#Solo:
#8t2#E|---------------------------------b13------------------------------------|
B|---------------11-13-b13----13p11-----b13~~p11-13-13-13p11--b11~~r~~b~~-|
G|-10h12\------12---------------------------------------------------------|
D|------------------------------------------------------------------------|
A|------------------------------------------------------------------------|
E|------------------------------------------------------------------------|#/8t2##/8t1#

Chorus

#9t1##9t2#E|-------------------|-------------------|
B|-------------------|-------------------|
G|----------------|----------------------
D|--b10r--8-10-8-7—----b10r---8-10-8-7------8--...the same again --b10r---8-10-8-7
A|------------------10|-----------------8p10----------------------------------------10-8
E|-------------------|-------------------|#/9t2##/9t1#

My heart, your skin  This love, I'm in
We don't arrive, without a surprise
You're right, I'm wrong  We're freed, belong
Intimate sight has come in to light


BACK TO VERSE

#10t1##10t2#E|-3-3-x-3-x-3---3-3-x-3-x-3---|
B|-3-3—x-3-x-3---3-3-x-3-x-3---|
G|-3-3—x-3-x-3---3-3-x-3-x-3---|repete
D|-----------------------------|
A|-----------------------------|
E|-----------------------------|#/10t2##/10t1#

etc...

When i pick up on that smell
Pick it up and run like hell
Little women send me some
Better get up on your run
All i ever wanted too
Was pick it up and run with you
Slip it into a summer spell
Double up and run like hell

#11t1#Solo:
#11t2#E|---------------------------------------------------13-15--------------|
B|---------------------------b13~~p11-----------b13---------b13~~p11----|
G|-10h12p10-12p10-12p10-etc-----------12--12-10---------------------12--|
D|----------------------------------------------------------------------|
A|----------------------------------------------------------------------|
E|----------------------------------------------------------------------|#/11t2##/11t1#

Chorus

My heart, your skin  This love, I'm in
We don't arrive, without a surprise
You're right, I'm wrong  We're freed, belong
Intimate sight has come in to light

My heart, your skin  This love, I'm in
We don't arrive, without a surprise
You're right, I'm wrong  We're freed, belong
Chorus

#12t1##12t2#E|-------------------|-------------------|
B|-------------------|-------------------|
G|----------------|----------------------
D|--b10r--8-10-8-7—----b10r---8-10-8-7------8--...the same again --b10r---8-10-8-7
A|------------------10|-----------------8p10----------------------------------------10-8
E|-------------------|-------------------|#/12t2##/12t1#

#13t1#Intimate sight has come in to light
#13t2#E|-10-----------------|-10-----------------|
B|---13-11-13-11-10---|---13-11-13-11-10---|
G|-----------------12-|-----------------12-|
D|--------------------|--------------------|
A|--------------------|--------------------|
E|--------------------|--------------------|#/13t2##/13t1#

#14t1#Solo:
#14t2#E|--------------------------------------------------------------------------------|
B|-----------------------------b13-11---------b13-11------------11h13-11----------|
G|-b10—-10p7-b10—-b10-10p7-b10-------12-10-12-------12-10-12-12----------12-10-12-|
D|--------------------------------------------------------------------------------|
A|--------------------------------------------------------------------------------|
E|--------------------------------------------------------------------------------|#/14t2##/14t1#

#15t1##15t2#E|------------------------------------------------------|
B|------------------------------------------------------|
G|-12-10------------------------------------------------|
D|-------12-b10--8-10-8-10p8-----b8---------------------|
A|---------------------------10----10p8h10-10p8---8h10--|
E|---------------------------------------------10-------|#/15t2##/15t1#

Chorus last part

#16t1##16t2#E|-------------------|-------------------|
B|-------------------|-------------------|
G|----------------|----------------------
D|--b10r--8-10-8-7—----b10r---8-10-8-7------8--...the same again --b10r---8-10-8-7
A|------------------10|-----------------8p10----------------------------------------10-8-10
E|-------------------|-------------------|#/16t2##/16t1#

Composição: Anthony Kiedis / Chad Smith / Flea / John FruscianteColaboração e revisão: alberto letrasSttênio RHCPMarcos Douglasrodrigo marquese mais 2