Tom: G
[Intro] 
                                                
#1t1##1t2#E|------------------------------------------------------------|
B|------------------------------------------------------------|
G|---13h15----13h15----13h15---13h15----13h15---13h15---------|
D|13-------13-------13-------13------13------13--------16-----|           
A|-----------------------------------------------------14-----|
E|------------------------------------------------------------|#/1t2##/1t1#

[Refrão]
        
#2t1##2t2#E|------------------------------12-12--12h14--12-12-12-12-------|
B|-14-14-14-12-14-12-14-12------12-12--12-----12-12-12-12-------|
G|-13-13-13-13-13-13-13-13------13-13--13-----13-13-13-13-------|
D|--------------------------/14-14-14--14-----14-14-14-14-------|
A|--------------------------------------------------------------|
E|--------------------------------------------------------------|#/2t2##/2t1#

#3t1##3t2#E|-11-11-11-11-11-11---14-14-14-14h16--14-14-14--|
B|-12-12-12-12-12-12---14-14-14-14-----14-14-14--|
G|-11-11-11-11-11-12---15-15-15-15-----15-15-15--|
D|-13-13-13-13-13-13---16-16-16-16-----16-16-16--|
A|-----------------------------------------------|
E|-----------------------------------------------|#/3t2##/3t1#

#4t1##4t2#E|------------------------------12-12-12h14--12-12-12-12-------|
B|-14-14-14-12-14-12-14-12------12-12-12-----12-12-12-12-------|
G|-13-13-13-13-13-13-13-13------13-13-13-----13-13-13-13-------|
D|--------------------------/14-14-14-14-----14-14-14-14-------|
A|-------------------------------------------------------------|
||-------------------------------------------------------------|#/4t2##/4t1#

#5t1##5t2#E|-11-11-11-11-11-11--11-11-11-11-11-----11-11-----------------|
B|-12-12-12-12-12-12--12-12-12-12-12p12--12-12-14/16-----------|
G|-13-13-13-13-13-13--11-11-11-11-11-----11-11-----------------|
D|--------------------13-13-13-13-13-----13-13-----------------|
A|-------------------------------------------------------------|
E|-------------------------------------------------------------|#/5t2##/5t1#

#6t1##6t2#E|------------------------------12-12--12h14--12-12-12-12-------|
B|-14-14-14-12-14-12-14-12------12-12--12-----12-12-12-12-------|
G|-13-13-13-13-13-13-13-13------13-13--13-----13-13-13-13-------|
D|--------------------------/14-14-14--14-----14-14-14-14-------|
A|--------------------------------------------------------------|
E|--------------------------------------------------------------|#/6t2##/6t1#

#7t1##7t2#E|-11-11-11-11-11-11---14-14-14-14h16--14-14-14--|
B|-12-12-12-12-12-12---14-14-14-14-----14-14-14--|
G|-11-11-11-11-11-12---15-15-15-15-----15-15-15--|
D|-13-13-13-13-13-13---16-16-16-16-----16-16-16--|
A|-----------------------------------------------|
E|-----------------------------------------------|#/7t2##/7t1#

#8t1##8t2#E|-11-11-11-11-11-11--------------------|
B|-12-12-12-12-12-12--------------------|
G|-13-13-13-13-13-13--------------------|
D|-14-14-14-14-14-14--------------------|
A|--------------------------------------|
E|--------------------------------------|#/8t2##/8t1#

[Intro]

#9t1#Riff
#9t2#E|------------------------------------------|
B|------------------------------------------|
G|-8--6-6h8---------------------------------|
D|------------8-8---8-9-11-9----------------|
A|------------------------------------------|
E|------------------------------------------|#/9t2##/9t1#

#10t1##10t2#E|------------------------------------------|
B|------------------------------------------|
G|-8--6-6h8-6b------------------------------|
D|--------------6h8-8-9-8-------------------|
A|------------------------------------------|
E|------------------------------------------|#/10t2##/10t1#

[Refrão]

#11t1##11t2#E|------------------------------12-12--12h14--12-12-12-12-------|
B|-14-14-14-12-14-12-14-12------12-12--12-----12-12-12-12-------|
G|-13-13-13-13-13-13-13-13------13-13--13-----13-13-13-13-------|
D|--------------------------/14-14-14--14-----14-14-14-14-------|
A|--------------------------------------------------------------|
E|--------------------------------------------------------------|#/11t2##/11t1#

#12t1##12t2#E|-11-11-11-11-11-11---14-14-14-14h16--14-14-14--|
B|-12-12-12-12-12-12---14-14-14-14-----14-14-14--|
G|-11-11-11-11-11-12---15-15-15-15-----15-15-15--|
D|-13-13-13-13-13-13---16-16-16-16-----16-16-16--|
A|-----------------------------------------------|
E|-----------------------------------------------|#/12t2##/12t1#

#13t1##13t2#E|------------------------------12-12-12h14--12-12-12-12-------|
B|-14-14-14-12-14-12-14-12------12-12-12-----12-12-12-12-------|
G|-13-13-13-13-13-13-13-13------13-13-13-----13-13-13-13-------|
D|--------------------------/14-14-14-14-----14-14-14-14-------|
A|-------------------------------------------------------------|
||-------------------------------------------------------------|#/13t2##/13t1#

#14t1##14t2#E|-11-11-11-11-11-11--11-11-11-11-11-----11-11-----------------|
B|-12-12-12-12-12-12--12-12-12-12-12p12--12-12-14/16-----------|
G|-13-13-13-13-13-13--11-11-11-11-11-----11-11-----------------|
D|--------------------13-13-13-13-13-----13-13-----------------|
A|-------------------------------------------------------------|
E|-------------------------------------------------------------|#/14t2##/14t1#

#15t1##15t2#E|------------------------------12-12--12h14--12-12-12-12-------|
B|-14-14-14-12-14-12-14-12------12-12--12-----12-12-12-12-------|
G|-13-13-13-13-13-13-13-13------13-13--13-----13-13-13-13-------|
D|--------------------------/14-14-14--14-----14-14-14-14-------|
A|--------------------------------------------------------------|
E|--------------------------------------------------------------|#/15t2##/15t1#

#16t1##16t2#E|-11-11-11-11-11-11---14-14-14-14h16--14-14-14--|
B|-12-12-12-12-12-12---14-14-14-14-----14-14-14--|
G|-11-11-11-11-11-12---15-15-15-15-----15-15-15--|
D|-13-13-13-13-13-13---16-16-16-16-----16-16-16--|
A|-----------------------------------------------|
E|-----------------------------------------------|#/16t2##/16t1#

#17t1##17t2#E|-11-11-11-11-11-11--------------------|
B|-12-12-12-12-12-12--------------------|
G|-13-13-13-13-13-13--------------------|
D|-14-14-14-14-14-14--------------------|
A|--------------------------------------|
E|--------------------------------------|#/17t2##/17t1#

[Ponte]

#18t1##18t2#E|--------------------------------------------------|
B|--------------------------------------------------|
G|----9-------8---8------11----------15----15-------|
D|-11---11--9---9---9/12----12-12/16----16----------|
A|--------------------------------------------------|
E|--------------------------------------------------|#/18t2##/18t1#

#19t1#Riff
#19t2#E|------------------------------------------------|
B|------------------------------------------------|
G|-----9---------7---7------11---------9----9-----|
D|-----9---------7---7------11---------9----9-----|
A|-/11---11-11/9---9----/13----13--/11---11-------|
E|------------------------------------------------|#/19t2##/19t1#

[Intro] 
                                                
#20t1##20t2#E|------------------------------------------------------------|
B|------------------------------------------------------------|
G|---13h15----13h15----13h15---13h15----13h15---13h15---------|
D|13-------13-------13-------13------13------13--------16-----|           
A|-----------------------------------------------------14-----|
E|------------------------------------------------------------|#/20t2##/20t1#

[Refrão]

#21t1##21t2#E|------------------------------12-12--12h14--12-12-12-12-------|
B|-14-14-14-12-14-12-14-12------12-12--12-----12-12-12-12-------|
G|-13-13-13-13-13-13-13-13------13-13--13-----13-13-13-13-------|
D|--------------------------/14-14-14--14-----14-14-14-14-------|
A|--------------------------------------------------------------|
E|--------------------------------------------------------------|#/21t2##/21t1#

#22t1##22t2#E|-11-11-11-11-11-11---14-14-14-14h16--14-14-14--|
B|-12-12-12-12-12-12---14-14-14-14-----14-14-14--|
G|-11-11-11-11-11-12---15-15-15-15-----15-15-15--|
D|-13-13-13-13-13-13---16-16-16-16-----16-16-16--|
A|-----------------------------------------------|
E|-----------------------------------------------|#/22t2##/22t1#

#23t1##23t2#E|------------------------------12-12-12h14--12-12-12-12-------|
B|-14-14-14-12-14-12-14-12------12-12-12-----12-12-12-12-------|
G|-13-13-13-13-13-13-13-13------13-13-13-----13-13-13-13-------|
D|--------------------------/14-14-14-14-----14-14-14-14-------|
A|-------------------------------------------------------------|
||-------------------------------------------------------------|#/23t2##/23t1#

#24t1##24t2#E|-11-11-11-11-11-11--11-11-11-11-11-----11-11-----------------|
B|-12-12-12-12-12-12--12-12-12-12-12p12--12-12-14/16-----------|
G|-13-13-13-13-13-13--11-11-11-11-11-----11-11-----------------|
D|--------------------13-13-13-13-13-----13-13-----------------|
A|-------------------------------------------------------------|
E|-------------------------------------------------------------|#/24t2##/24t1#

#25t1##25t2#E|------------------------------12-12--12h14--12-12-12-12-------|
B|-14-14-14-12-14-12-14-12------12-12--12-----12-12-12-12-------|
G|-13-13-13-13-13-13-13-13------13-13--13-----13-13-13-13-------|
D|--------------------------/14-14-14--14-----14-14-14-14-------|
A|--------------------------------------------------------------|
E|--------------------------------------------------------------|#/25t2##/25t1#

#26t1##26t2#E|-11-11-11-11-11-11---14-14-14-14h16--14-14-14--|
B|-12-12-12-12-12-12---14-14-14-14-----14-14-14--|
G|-11-11-11-11-11-12---15-15-15-15-----15-15-15--|
D|-13-13-13-13-13-13---16-16-16-16-----16-16-16--|
A|-----------------------------------------------|
E|-----------------------------------------------|#/26t2##/26t1#

#27t1##27t2#E|-11-11-11-11-11-11--------------------|
B|-12-12-12-12-12-12--------------------|
G|-13-13-13-13-13-13--------------------|
D|-14-14-14-14-14-14--------------------|
A|--------------------------------------|
E|--------------------------------------|#/27t2##/27t1#

[Final]

#28t1##28t2#E|--------------------------------------------|
B|-----------7--------------------------------|
G|---6h8-6-----8------b6-6--4--6b-------------|
D|-9-------------9----------------------------|
A|--------------------------------------------|
E|--------------------------------------------|#/28t2##/28t1#

#29t1##29t2#E|-------------------2h4-------------|
B|-----------------------------------|
G|-6/8-4h6-6--3b-4-------------------|
A|-----------------------------------|
E|-----------------------------------|#/29t2##/29t1#
Composição: Anthony Kiedis / Chad Smith / Flea / Josh KlinghofferColaboração e revisão: vitor sousaomar jabbar