busca

Encore

Red Hot Chili Peppers

Tom: B
[Intro](0:10)

[Guitarra 1 Clean+Boss DD-6 Digital Delay set em cascading repeat]

                 G#m                                B
E|---------------------------------------------------------------------------|
B|------9h11-----9h11----9h11---9h11---9h11---9h11-7~~~~---------------------|
G|---8--------8-------8-------8------8------8--------------------------------|
D|-------------------------------------------------9~~~~---------------------|           
A|---------------------------------------------------------------------------|
E|---------------------------------------------------------------------------|


[Verso 1](0:27)

[Guitarra 1 Clean+Boss DD-6 Digital Delay set em cascading repeat]

                 G#m                                B
E|---------------------------------------------------------------------------|
B|------9h11-----9h11----9h11---9h11---9h11---9h11-7~~~~---------------------|
G|---8--------8-------8-------8------8------8--------------------------------|
D|-------------------------------------------------9~~~~---------------------|             x6
A|---------------------------------------------------------------------------|
E|---------------------------------------------------------------------------|


[Chorus](1:04)

[Guitarra 2 Clean]

             C#m                    E                                B                  F#
E|---9----9--9----9--x--9--------12--12--12--12h14p12------7----7--7----7--x--7------14--14--14-x--14---|
B|---9----9--9----9--x--9--------12--12--12-----------14---7----7--7----7--x--7------14--14--14-x--14---|
G|---9----9--9----9--x--9--11/13-----13--13----------------8----8--8----8--x--8--9/15----15--15-x--15---|
D|--11---11--11---11-x-11----------------------------------9----9--9----9--x--9-------------------------|
A|------------------------------------------------------------------------------------------------------|
E|------------------------------------------------------------------------------------------------------|

E|--14--14-------------------------------------------------------------------|
B|--14--14-------------------------------------------------------------------|
G|--15--15-------------------------------------------------------------------|
D|---------------------------------------------------------------------------|
A|---------------------------------------------------------------------------|
                                                                                                          x2
             C#m                    E                               G#m
E|---9----9--9----9--x--9--------12--12--12--12h14p12------11----11--11----11--x--11------7--7------11---|
B|---9----9--9----9--x--9--------12--12--12-----------14---12----12--12----12--x--12------7--7------12---|
G|---9----9--9----9--x--9--11/13-----13--13----------------13----13--13----13--x--13------8--8-8/11-11---|
D|--11---11--11---11-x-11--------------------------------------------------------------------------------|
A|-------------------------------------------------------------------------------------------------------|
E|-------------------------------------------------------------------------------------------------------|

E|--9--7\9-------------------------------------------------------------------|
B|--9--7\9-------------------------------------------------------------------|
G|--9--8\9-------------------------------------------------------------------|
D|---------------------------------------------------------------------------|
A|---------------------------------------------------------------------------|
E|---------------------------------------------------------------------------|

Final do Chorus

              C#m                      G#m
E|---9----9--9----9--x--9----4----4--4----4--x--4---|
B|---9----9--9----9--x--9----4----4--4----4--x--4---|
G|---9----9--9----9--x--9----4----4--4----4--x--4---|
D|--11---11--11---11-x-11----6----6--6----6--x--6---|
A|---x----x--x----x--x--x----x----x--x----x--x--x---|
E|---9----9--9----9-----9----4----4--4----4--4--4---|


[Verso 2](1:36)

[Guitarra 1 Clean+Boss DD-6 Digital Delay set em cascading repeat]

                 G#m                                B
E|---------------------------------------------------------------------------|
B|------9h11-----9h11----9h11---9h11---9h11---9h11-7~~~~---------------------|
G|---8--------8-------8-------8------8------8--------------------------------|
D|-------------------------------------------------9~~~~---------------------|             x6
A|---------------------------------------------------------------------------|
E|---------------------------------------------------------------------------|

Fill(1:53) 
E|------------------------------------------|
B|------------------------------------------|
G|---8---6--6h8~~---------------------------|
D|------------------------------------------|
A|------------------------------------------|
E|------------------------------------------|


[Chorus](2:13)

[Guitarra 2 Clean]

             C#m                    E                                B                  F#
E|---9----9--9----9--x--9--------12--12--12--12h14p12------7----7--7----7--x--7------14--14--14-x--14---|
B|---9----9--9----9--x--9--------12--12--12-----------14---7----7--7----7--x--7------14--14--14-x--14---|
G|---9----9--9----9--x--9--11/13-----13--13----------------8----8--8----8--x--8--9/15----15--15-x--15---|
D|--11---11--11---11-x-11----------------------------------9----9--9----9--x--9-------------------------|
A|------------------------------------------------------------------------------------------------------|
E|------------------------------------------------------------------------------------------------------|

E|--14--14-------------------------------------------------------------------|
B|--14--14-------------------------------------------------------------------|
G|--15--15-------------------------------------------------------------------|
D|---------------------------------------------------------------------------|
A|---------------------------------------------------------------------------|
                                                                                                          x2
             C#m                    E                               G#m
E|---9----9--9----9--x--9--------12--12--12--12h14p12------11----11--11----11--x--11------7--7------11---|
B|---9----9--9----9--x--9--------12--12--12-----------14---12----12--12----12--x--12------7--7------12---|
G|---9----9--9----9--x--9--11/13-----13--13----------------13----13--13----13--x--13------8--8-8/11-11---|
D|--11---11--11---11-x-11--------------------------------------------------------------------------------|
A|-------------------------------------------------------------------------------------------------------|
E|-------------------------------------------------------------------------------------------------------|

E|--9--7\9-------------------------------------------------------------------|
B|--9--7\9-------------------------------------------------------------------|
G|--9--8\9-------------------------------------------------------------------|
D|---------------------------------------------------------------------------|
A|---------------------------------------------------------------------------|
E|---------------------------------------------------------------------------|

Final do Chorus

              C#m                      G#m
E|---9----9--9----9--x--9----4----4--4----4--x--4---|
B|---9----9--9----9--x--9----4----4--4----4--x--4---|
G|---9----9--9----9--x--9----4----4--4----4--x--4---|
D|--11---11--11---11-x-11----6----6--6----6--x--6---|
A|---x----x--x----x--x--x----x----x--x----x--x--x---|
E|---9----9--9----9-----9----4----4--4----4--4--4---|


[Bridge](2:45)

E|-----------------------------------------------------------------------------------|
B|-----5---------4----------7-----------11------------9----x-7-7------11--------9-9--|
G|--6-----6---4-----4--4/7-----7--7/11-----11---------9----x-7-7------11--------9-9--|
D|----------------------------------------------------9----x-7-7------11--------9-9--|
A|-----------------------------------------------9/11----9-------9/13-----13\11------|
E|-----------------------------------------------------------------------------------|


[Verso 3](2:54)

[Guitarra 1 Clean+Boss DD-6 Digital Delay set em cascading repeat]

                 G#m                                B
E|---------------------------------------------------------------------------|
B|------9h11-----9h11----9h11---9h11---9h11---9h11-7~~~~---------------------|
G|---8--------8-------8-------8------8------8--------------------------------|
D|-------------------------------------------------9~~~~---------------------|             x6
A|---------------------------------------------------------------------------|
E|---------------------------------------------------------------------------|


[Chorus](2:13)

[Guitarra 2 Clean]

             C#m                    E                                B                  F#
E|---9----9--9----9--x--9--------12--12--12--12h14p12------7----7--7----7--x--7------14--14--14-x--14---|
B|---9----9--9----9--x--9--------12--12--12-----------14---7----7--7----7--x--7------14--14--14-x--14---|
G|---9----9--9----9--x--9--11/13-----13--13----------------8----8--8----8--x--8--9/15----15--15-x--15---|
D|--11---11--11---11-x-11----------------------------------9----9--9----9--x--9-------------------------|
A|------------------------------------------------------------------------------------------------------|
E|------------------------------------------------------------------------------------------------------|

E|--14--14-------------------------------------------------------------------|
B|--14--14-------------------------------------------------------------------|
G|--15--15-------------------------------------------------------------------|
D|---------------------------------------------------------------------------|
A|---------------------------------------------------------------------------|
                                                                                                          x2
             C#m                    E                               G#m
E|---9----9--9----9--x--9--------12--12--12--12h14p12------11----11--11----11--x--11------7--7------11---|
B|---9----9--9----9--x--9--------12--12--12-----------14---12----12--12----12--x--12------7--7------12---|
G|---9----9--9----9--x--9--11/13-----13--13----------------13----13--13----13--x--13------8--8-8/11-11---|
D|--11---11--11---11-x-11--------------------------------------------------------------------------------|
A|-------------------------------------------------------------------------------------------------------|
E|-------------------------------------------------------------------------------------------------------|

E|--9--7\9-------------------------------------------------------------------|
B|--9--7\9-------------------------------------------------------------------|
G|--9--8\9-------------------------------------------------------------------|
D|---------------------------------------------------------------------------|
A|---------------------------------------------------------------------------|
E|---------------------------------------------------------------------------|

Final do Chorus

              C#m                      G#m
E|---9----9--9----9--x--9----4----4--4----4--x--4---|
B|---9----9--9----9--x--9----4----4--4----4--x--4---|
G|---9----9--9----9--x--9----4----4--4----4--x--4---|
D|--11---11--11---11-x-11----6----6--6----6--x--6---|
A|---x----x--x----x--x--x----x----x--x----x--x--x---|
E|---9----9--9----9-----9----4----4--4----4--4--4---|


[Ending](2:45)

[Guitarra 1 Clean+Boss DD-6 Digital Delay set em cascading repeat]

                 G#m                                B
E|---------------------------------------------------------------------------|
B|------9h11-----9h11----9h11---9h11---9h11---9h11-7~~~~---------------------|
G|---8--------8-------8-------8------8------8--------------------------------|
D|-------------------------------------------------9~~~~---------------------|             x6
A|---------------------------------------------------------------------------|
E|---------------------------------------------------------------------------|

[Fill]

E|--------------------------------------------------------------------|
B|--6h8~--6~---8-6-6h8~~-----8r6-4-6b8~~------------------------------|
G|--------------------------------------------------------------------|
D|--------------------------------------------------------------------|
A|--------------------------------------------------------------------|
E|--------------------------------------------------------------------|

Clipes