busca

Especially In Michigan

Red Hot Chili Peppers

Tom: A
Introdução:

E|---------------------------------------------------------------------------------|
B|-----------------------------------------------------------------------7h9-9-----|
G|--------------------------------9h11-9-----------------------------9---------9---|
D|9h11-11-11-11-11--9h11-11-11-11--------9h11-11-11-11-11--9h11-11-11--------------|
A|---------------------------------------------------------------------------------|
E|---------------------------------------------------------------------------------|


Riff: (fica praticamente a música inteira assim)

E|--9-9---9-9---9--|
B|7-----7-----7----|
G|-----------------|
D|-----------------|
A|-----------------|
E|-----------------|


1º Refrão: (sem distorção)
 
          A                E                  F#5                    D
E|9------9------9-|--7-----7-----7-|--9------9------9-|-10-------10-------10-|
B|----10-----10---|------9-----9---|------10-----10---|-------10-------10----|
G|--9------9------|----9-----9-----|----11------11----|----11-------11-------|
D|----------------|----------------|------------------|----------------------|
A|----------------|----------------|------------------|----------------------|
E|----------------|----------------|------------------|----------------------|

          A                E                  F#5                    D
E|9------9------9-|--7-----7-----7-|--9------9------9-|-14-------14-------14-|
B|----10-----10---|------9-----9---|------10-----10---|-------15-------15----|
G|--9------9------|----9-----9-----|----9------9------|----14-------14-------|
D|----------------|----------------|------------------|----------------------|
A|----------------|----------------|------------------|----------------------|
E|----------------|----------------|------------------|----------------------|




2º Refrão: (com distorção)

   A5                     E5                  F#5                 D5( grave)
         
D|------7----|        D|-----------|      D|------4----|      D|----0------|
A|-----7-----|        A|--2--------|      A|-----4-----|      A|----0------|
E|--5--------|        E|-0---------|      E|--2--------|      E|-----------|



    A5                    E5                   F#5                D5

D|------7----|        D|-----------|      D|------4----|      G|--------7-|
A|-----7-----|        A|--2--------|      A|-----4-----|      D|-------7--|
E|--5--------|        E|-0---------|      E|--2--------|      A|----5-----|
 

Pessoal esse é aquele som da guitarra por baixo da base (muito agudo)

E|-9-9-9-9-9/4-4-4-4-4/5-5-5-5-5/2-2-2-2-2/9-9-9-9-9/4-4-4-4-4/5-5-5-5-5/14-14-14-14-14~-|
B|---------------------------------------------------------------------------------------|
G|---------------------------------------------------------------------------------------|



Solo Final:

E|---------------------------------16-16h17p16---------------|
B|--17b19-17-14-17b19-17-14-----17-------------17------------|
G|---------------------------16-------------------16---------|
D|-----------------------------------------------------------|
A|-----------------------------------------------------------|
E|-----------------------------------------------------------|

E|----------------12-----------------------------------------|
B|----------------------------------------15-15b17b15--------|
G|--------14-16b18~~18b16-14-----------14-------------14-----|
D|--14s16--------------------16-16--16-------------------16--|
A|-----------------------------------------------------------|
E|-----------------------------------------------------------|

E|---------------------------------16-16b17b16---------------|
B|--17b19b17-14-17b19-17-14-----17-------------17------------|
G|---------------------------16-------------------16\--------|
D|-----------------------------------------------------------|
A|-----------------------------------------------------------|
E|-----------------------------------------------------------|

E|-------9----------------------|
B|--9b10~~~9b10b9-7-7~~~~~~~~~--|
G|------------------------------|
D|------------------------------|
A|------------------------------|
E|------------------------------|
a música termina com um F#5...


flo passoal espero q gostem, um abração!

Clipes

Cifra Club Pro

Aproveite o Cifra Club com benefícios exclusivos e sem anúncios
7 dias grátis
Cifra Club Pro
Aproveite o Cifra Club com benefícios exclusivos e sem anúncios
7 dias grátis