Tom: G
#1t1#Intro:
#1t2#E|--------------------------------------------------------------------------------------|
B|--10----10----10----10----10----10----10----10----10----10----10----10----10----10----|
G|--------------------------------------------------------------------------------------|
D|--------------------------------------------------------------------------------------|
A|--------------------------------------------------------------------------------------|
E|--------------------------------------------------------------------------------------|#/1t2##/1t1#

#2t1#Intro:
#2t2#E|----------------------------------------------------------------------------------------|
B|--10------------------------------------------------------------------------------------|
G|----------------------------------------------------------------------------------------|
D|----------------------------------------------------------------------------------------|
A|----------------------------------------------------------------------------------------|
E|----------------------------------------------------------------------------------------|#/2t2##/2t1#

#3t1#Verso:
#3t2#E|----------------------------------------------------------------------------------------|
B|----------------------------------------------------------------------------------------|
G|--9-9-------7-7---9-------------9----7-7---9--------------------------------------------|
D|-----------------------10-10--------------------10-10---------------------7---------7--|
A|---------------------------------------------------------------------5/7-------5/7------|
E|----------------------------------------------------------------------------------------|#/3t2##/3t1#

#4t1#Verso:
#4t2#E|---------------------------------------------------------------------------------------|
B|---------------------------------------------------------------------------------------|
G|------9----7-7---9-------------9----7-7---9--------------------------------------------|
D|----------------------10-10--------------------10-10---------------------7---------7--|
A|--------------------------------------------------------------------5/7-------5/7------|
E|---------------------------------------------------------------------------------------|#/4t2##/4t1#

#5t1##5t2#E|---------------------------------------------------------------------------------------|
B|---------------------------------------------------------------------------------------|
G|------9----7-7---9-------------9----7-7---9--------------------------------------------|
D|----------------------10-10--------------------10-10---------------------7---------7--|
A|--------------------------------------------------------------------5/7-------5/7------|
E|---------------------------------------------------------------------------------------|#/5t2##/5t1#

#6t1##6t2#E|---------------------------------------------------------------------------------------|
B|---------------------------------------------------------------------------------------|
G|------9----7-7---9-------------9----7-7---9--------------------------------------------|
D|----------------------10-10--------------------10-10---------------------7---------7--|
A|--------------------------------------------------------------------5/7-------5/7------|
E|---------------------------------------------------------------------------------------|#/6t2##/6t1#

#7t1#Refrão:
#7t2#E|--0----0----0--0--0---0----0--------------0----0----0--0--0---1---0---1--0--3---0----|
B|--1----1----1--1--1---0----0----1--1--1---1----1----1--1--1---3---3---3--3--5---5----|
G|--2----2----0--0--0---0----0----2--2--2---2----2----0--0--0---2---2---2--2--4---4----|
D|--2----2----2--2--2---0----0----3--3--3---2----2----2--2--2---0---0---0--0-----------|
A|--0----0----3--3--3---2----2----3--3--3---0----0----3--3--3--------------------------|
E|----------------------3----3----1--1--1----------------------------------------------|#/7t2##/7t1#

#8t1##8t2#E|--0----0----0--0--0---0----0--------------0----0----0--0--0---1---0---1--1--3----3---|
B|--1----1----1--1--1---0----0----1--1--1---1----1----1--1--1---3---3---3--3--5----5---|
G|--2----2----0--0--0---0----0----2--2--2---2----2----0--0--0---2---2---2--2--4----4---|
D|--2----2----2--2--2---0----0----3--3--3---2----2----2--2--2---0---0---0--0--2----2---|
A|--0----0----3--3--3---2----2----3--3--3---0----0----3--3--3--------------------------|
E|----------------------3----3----1--1--1----------------------------------------------|#/8t2##/8t1#

#9t1#Solo:
#9t2#E|--------------------------------------------------------------------------------------------|
B|--------------------------------------------------------------------------------------------|
G|------------0--------------------5-------7fb-r--5--------5----------------------------------|
D|-------0---------------5----7---------7-------------5/7-------------5-----------------------|
A|-----------------5/7-----------------------------------------5/7---------7----3-h-5----3----|
E|--------------------------------------------------------------------------------------------|#/9t2##/9t1#

(Verso 2)

#10t1#Solo:
#10t2#E|---------------------------------------------------------------------------------------------|
B|---------------------------------------------------------------------------------------------|
G|---------------------------------------------------------------------------------------------|
D|---------------------------------------------------------------------------------------------|
A|---------------------------------------------------------------------------------------------|
E|--5------------------------------------------------------------------------------------------|#/10t2##/10t1#

#11t1#Verso:
#11t2#E|--------8-8------8-8------8-8------8-8------8-8------8-8------8-8------8-8------8-8----------|
B|--------8-8------8-8------8-8------8-8------8-8------8-8------8-8------8-8------8-8----------|
G|---------------------------------------------------------------------------------------------|
D|---------------------------------------------------------------------------------------------|
A|---------------------------------------------------------------------------------------------|
E|---------------------------------------------------------------------------------------------|#/11t2##/11t1#

#12t1##12t2#E|---------------------------------------------------------------------------------------------|
B|---------------------------------------------------------------------------------------------|
G|---------------------------------------------------------------------------------------------|
D|--------------------------------------------------------------------------7---------7-------|
A|---------------------------------------------------------------------5/7-------5/7-----------|
E|---------------------------------------------------------------------------------------------|#/12t2##/12t1#

#13t1#Verso:
#13t2#E|--------8-8------8-8------8-8------8-8------8-8------8-8------8-8------8-8------8-8-8-8-8-8--|
B|--------8-8------8-8------8-8------8-8------8-8------8-8------8-8------8-8------8-8-8-8-8-8--|
G|---------------------------------------------------------------------------------------------|
D|---------------------------------------------------------------------------------------------|
A|---------------------------------------------------------------------------------------------|
E|---------------------------------------------------------------------------------------------|#/13t2##/13t1#

#14t1##14t2#E|---------------------------------------------------------------------------------------------|
B|---------------------------------------------------------------------------------------------|
G|-------------x----------------x--------------------------------------------------------------|
D|-------------x----------------x-------------------------------------------7---------7-------|
A|---------------------------------------------------------------------5/7-------5/7-----------|
E|---------------------------------------------------------------------------------------------|#/14t2##/14t1#

#15t1#Refrão:
#15t2#E|--0----0----0--0--0---0----0--------------0----0----0--0--0---1---0---1--0--3---0----|
B|--1----1----1--1--1---0----0----1--1--1---1----1----1--1--1---3---3---3--3--5---5----|
G|--2----2----0--0--0---0----0----2--2--2---2----2----0--0--0---2---2---2--2--4---4----|
D|--2----2----2--2--2---0----0----3--3--3---2----2----2--2--2---0---0---0--0-----------|
A|--0----0----3--3--3---2----2----3--3--3---0----0----3--3--3--------------------------|
E|----------------------3----3----1--1--1----------------------------------------------|#/15t2##/15t1#

#16t1##16t2#E|--0----0----0--0--0---0----0--------------0----0----0--0--0---1---0---1--1--3----3---|
B|--1----1----1--1--1---0----0----1--1--1---1----1----1--1--1---3---3---3--3--5----5---|
G|--2----2----0--0--0---0----0----2--2--2---2----2----0--0--0---2---2---2--2--4----4---|
D|--2----2----2--2--2---0----0----3--3--3---2----2----2--2--2---0---0---0--0--2----2---|
A|--0----0----3--3--3---2----2----3--3--3---0----0----3--3--3--------------------------|
E|----------------------3----3----1--1--1----------------------------------------------|#/16t2##/16t1#

#17t1##17t2#E|--12--------------------12--------------------12--------------------12----------------------|
B|--12--------------------12--------------------12--------------------12----------------------|
G|--12--------------------12--------------------12--------------------12----------------------|
D|--x---------------------x---------------------x---------------------x-----------------------|
A|--14--------------------14--------------------14--------------------14----------------------|
E|--------------------------------------------------------------------------------------------|#/17t2##/17t1#

#18t1##18t2#E|--------------------------------------------------------------------------------------------|
B|--------------------------------------------------------------------------------------------|
G|--------------------------------------------------------------------------------------------|
D|--------------5---------------------5---------------------5---------------------5-----------|
A|--7----7--5-----7-5-7---7----7--5-----7-5-7---7----7--5-----7-5-7---7----7--5-----7-5-7-----|
E|--------------------------------------------------------------------------------------------|#/18t2##/18t1#

#19t1##19t2#E|--15--------------------15--------------------12--------------------12-12-12-12-12-12-12-12-|
B|--12--------------------12--------------------12--------------------12-12-12-12-12-12-12-12-|
G|--12--------------------12--------------------12--------------------12-12-12-12-12-12-12-12-|
D|--x---------------------x---------------------x---------------------x--x--x--x--x--x--x--x--|
A|--14--------------------14--------------------14--------------------14-14-14-14-14-14-14-14-|
E|--------------------------------------------------------------------------------------------|#/19t2##/19t1#

#20t1##20t2#E|--------------------------------------------------------------------------------------------|
B|--------------------------------------------------------------------------------------------|
G|--------------------------------------------------------------------------------------------|
D|--------------5---------------------5---------------------5---------------------5-----------|
A|--7----7--5-----7-5-7---7----7--5-----7-5-7---7----7--5-----7-5-7---7----7--5-----7-5-7-----|
E|--------------------------------------------------------------------------------------------|#/20t2##/20t1#

#21t1##21t2#E|-------------------------------------------------------------------------------|
B|-------------------------------------------------------------------------------|
G|-------------------------------------------------------------------------------|
D|-----5---5---5---5---5---5---5---5---5---5---5---5---5---5---5---5---5---5---5-|
A|--5h7-5h7-5h7-5h7-5h7-5h7-5h7-5h7-5h7-5h7-5h7-5h7-5h7-5h7-5h7-5h7-5h7-5h7-5h7--|
E|-------------------------------------------------------------------------------|#/21t2##/21t1#

#22t1##22t2#E|-------------------------------------------------------------------------------|
B|-------------------------------------------------------------------------------|
G|-------------------------------------------------------------------------------|
D|-----5---5---5---5---5---5---5---5---5---5---5---5---5---5---5---5---5---5--5--|
A|--5h7-5h7-5h7-5h7-5h7-5h7-5h7-5h7-5h7-5h7-5h7-5h7-5h7-5h7-5h7-5h7-5h7-5h7------|
E|-------------------------------------------------------------------------------|#/22t2##/22t1#

Verso 3:

#23t1##23t2#E|----------------------------------------------------------------------------------------|
B|----------------------------------------------------------------------------------------|
G|----------------------------------------------------------------------------------------|
D|----------------------------------------------------------------------------------------|
A|--7-------------------------------------------------------------------------------------|
E|----------------------------------------------------------------------------------------|#/23t2##/23t1#

#24t1##24t2#E|----------------------------------------------------------------------------------------|
B|----------------------------------------------------------------------------------------|
G|------------7-7---9-------------9----7-7---9--------------------------------------------|
D|-----------------------10-10------------------x-10-10---------------------7---------7--|
A|---------------------------------------------------------------------5/7-------5/7------|
E|----------------------------------------------------------------------------------------|#/24t2##/24t1#

#25t1##25t2#E|----------------------------------------------------------------------------------------|
B|--10----10----10----10----10----10----10----10----10----10----10----10----10----10------|
G|----------------------------------------------------------------------------------------|
D|----------------------------------------------------------------------------------------|
A|----------------------------------------------------------------------------------------|
E|----------------------------------------------------------------------------------------|#/25t2##/25t1#

#26t1##26t2#E|----------------------------------------------------------------------------------------|
B|----------------------------------------------------------------------------------------|
G|--9-9-------7-7---9-------------9----7-7---9--------------------------------------------|
D|-----------------------10-10--------------------10-10---------------------7---------7--|
A|---------------------------------------------------------------------5/7-------5/7------|
E|----------------------------------------------------------------------------------------|#/26t2##/26t1#

#27t1#Refrão:
#27t2#E|--0----0----0--0--0---0----0--------------0----0----0--0--0---1---0---1--0--3---0----|
B|--1----1----1--1--1---0----0----1--1--1---1----1----1--1--1---3---3---3--3--5---5----|
G|--2----2----0--0--0---0----0----2--2--2---2----2----0--0--0---2---2---2--2--4---4----|
D|--2----2----2--2--2---0----0----3--3--3---2----2----2--2--2---0---0---0--0-----------|
A|--0----0----3--3--3---2----2----3--3--3---0----0----3--3--3--------------------------|
E|----------------------3----3----1--1--1----------------------------------------------|#/27t2##/27t1#

#28t1##28t2#E|--0----0----0--0--0---0----0--------------0----0----0--0--0---1---0---1--1--3----3---|
B|--1----1----1--1--1---0----0----1--1--1---1----1----1--1--1---3---3---3--3--5----5---|
G|--2----2----0--0--0---0----0----2--2--2---2----2----0--0--0---2---2---2--2--4----4---|
D|--2----2----2--2--2---0----0----3--3--3---2----2----2--2--2---0---0---0--0--2----2---|
A|--0----0----3--3--3---2----2----3--3--3---0----0----3--3--3--------------------------|
E|----------------------3----3----1--1--1----------------------------------------------|#/28t2##/28t1#

#29t1#Outro:
#29t2#E|--------------------------------------------------------------------------------------|
B|--10----10----10----10----10----10----10----10----10----10----10----10----10----10----|
G|--------------------------------------------------------------------------------------|
D|--------------------------------------------------------------------------------------|
A|--------------------------------------------------------------------------------------|
E|--------------------------------------------------------------------------------------|#/29t2##/29t1#

#30t1##30t2#E|------------------------------------------------------------------------------------|
B|--10----10----10----10----10----10----10----10----10----10----10----10----10----10--|
G|------------------------------------------------------------------------------------|
D|------------------------------------------------------------------------------------|
A|------------------------------------------------------------------------------------|
E|------------------------------------------------------------------------------------|#/30t2##/30t1#

#31t1#  PM .  .  .  .  .  .  .  .  .  .  .  .  .  .  .  .  .  .  .  .  .  .  .  .  .  .  .
#31t2#E|------------------------------------------------------------------------------------|
B|------------------------------------------------------------------------------------|
G|------------------------------------------------------------------------------------|
D|-----5---5---5---5---5---5---5---5---5---5---5---5---5---5---5---5---5---5---5---5--|
A|--5h7-5h7-5h7-5h7-5h7-5h7-5h7-5h7-5h7-5h7-5h7-5h7-5h7-5h7-5h7-5h7-5h7-5h7-5h7-5h7---|
E|------------------------------------------------------------------------------------|#/31t2##/31t1#

#32t1##32t2#E|------------------------------------------------------------------------------------|
B|--10----10----10----10----10----10----10----10----10----10----10----10----10----10--|
G|------------------------------------------------------------------------------------|
D|------------------------------------------------------------------------------------|
A|------------------------------------------------------------------------------------|
E|------------------------------------------------------------------------------------|#/32t2##/32t1#

#33t1##33t2#E|------------------------------------------------------------------------------------|
B|---------------------------------------------------------------9--------------------|
G|---------------------------------------------------------------9--------------------|
D|---------------------------------------------------------------10-------------------|
A|--7------------------------------------------------------------11-------------------| E------------------------------------------------------------------------------------|#/33t2##/33t1#

#34t1##34t2#E|------------------------------------------------------------------------------------|
B|--10----10----10----10----10----10----10----10----10--------------------------------|
G|------------------------------------------------------------------------------------|
D|------------------------------------------------------------------------------------|
A|------------------------------------------------------------------------------------|
E|------------------------------------------------------------------------------------|#/34t2##/34t1#

#35t1##35t2#E|------------------------------------------------------------------------------------|
B|--9---------------------9---------------------9---------------------9---------------|
G|--9---------------------9---------------------9---------------------9---------------|
D|--10--------------------10--------------------10--------------------10--------------|
A|--11--------------------11--------------------11--------------------11--------------|
E|------------------------------------------------------------------------------------|#/35t2##/35t1#
Composição: Josh Klinghoffer / Michal BalzaryColaboração e revisão: igor silva