busca

Ethiopia

Red Hot Chili Peppers

Tom: D
Intro:
E|--------------------------------------------------------------------------------------|
B|--10----10----10----10----10----10----10----10----10----10----10----10----10----10----|
G|--------------------------------------------------------------------------------------|
D|--------------------------------------------------------------------------------------|
A|--------------------------------------------------------------------------------------|
E|--------------------------------------------------------------------------------------|

Intro:
E|----------------------------------------------------------------------------------------|
B|--10------------------------------------------------------------------------------------|
G|----------------------------------------------------------------------------------------|
D|----------------------------------------------------------------------------------------|
A|----------------------------------------------------------------------------------------|
E|----------------------------------------------------------------------------------------|

Verso:
E|----------------------------------------------------------------------------------------|
B|----------------------------------------------------------------------------------------|
G|--9-9-------7-7---9-------------9----7-7---9--------------------------------------------|
D|-----------------------10-10--------------------10-10---------------------7---------7--|
A|---------------------------------------------------------------------5/7-------5/7------|
E|----------------------------------------------------------------------------------------|

Verso:
E|---------------------------------------------------------------------------------------|
B|---------------------------------------------------------------------------------------|
G|------9----7-7---9-------------9----7-7---9--------------------------------------------|
D|----------------------10-10--------------------10-10---------------------7---------7--|
A|--------------------------------------------------------------------5/7-------5/7------|
E|---------------------------------------------------------------------------------------|

E|---------------------------------------------------------------------------------------|
B|---------------------------------------------------------------------------------------|
G|------9----7-7---9-------------9----7-7---9--------------------------------------------|
D|----------------------10-10--------------------10-10---------------------7---------7--|
A|--------------------------------------------------------------------5/7-------5/7------|
E|---------------------------------------------------------------------------------------|

E|---------------------------------------------------------------------------------------|
B|---------------------------------------------------------------------------------------|
G|------9----7-7---9-------------9----7-7---9--------------------------------------------|
D|----------------------10-10--------------------10-10---------------------7---------7--|
A|--------------------------------------------------------------------5/7-------5/7------|
E|---------------------------------------------------------------------------------------|

Refrão:
E|--0----0----0--0--0---0----0--------------0----0----0--0--0---1---0---1--0--3---0----|
B|--1----1----1--1--1---0----0----1--1--1---1----1----1--1--1---3---3---3--3--5---5----|
G|--2----2----0--0--0---0----0----2--2--2---2----2----0--0--0---2---2---2--2--4---4----|
D|--2----2----2--2--2---0----0----3--3--3---2----2----2--2--2---0---0---0--0-----------|
A|--0----0----3--3--3---2----2----3--3--3---0----0----3--3--3--------------------------|
E|----------------------3----3----1--1--1----------------------------------------------|

E|--0----0----0--0--0---0----0--------------0----0----0--0--0---1---0---1--1--3----3---|
B|--1----1----1--1--1---0----0----1--1--1---1----1----1--1--1---3---3---3--3--5----5---|
G|--2----2----0--0--0---0----0----2--2--2---2----2----0--0--0---2---2---2--2--4----4---|
D|--2----2----2--2--2---0----0----3--3--3---2----2----2--2--2---0---0---0--0--2----2---|
A|--0----0----3--3--3---2----2----3--3--3---0----0----3--3--3--------------------------|
E|----------------------3----3----1--1--1----------------------------------------------|

Solo:
E|--------------------------------------------------------------------------------------------|
B|--------------------------------------------------------------------------------------------|
G|------------0--------------------5-------7fb-r--5--------5----------------------------------|
D|-------0---------------5----7---------7-------------5/7-------------5-----------------------|
A|-----------------5/7-----------------------------------------5/7---------7----3-h-5----3----|
E|--------------------------------------------------------------------------------------------|

(Verso 2)

Solo:
E|---------------------------------------------------------------------------------------------|
B|---------------------------------------------------------------------------------------------|
G|---------------------------------------------------------------------------------------------|
D|---------------------------------------------------------------------------------------------|
A|---------------------------------------------------------------------------------------------|
E|--5------------------------------------------------------------------------------------------|

Verso:
E|--------8-8------8-8------8-8------8-8------8-8------8-8------8-8------8-8------8-8----------|
B|--------8-8------8-8------8-8------8-8------8-8------8-8------8-8------8-8------8-8----------|
G|---------------------------------------------------------------------------------------------|
D|---------------------------------------------------------------------------------------------|
A|---------------------------------------------------------------------------------------------|
E|---------------------------------------------------------------------------------------------|

E|---------------------------------------------------------------------------------------------|
B|---------------------------------------------------------------------------------------------|
G|---------------------------------------------------------------------------------------------|
D|--------------------------------------------------------------------------7---------7-------|
A|---------------------------------------------------------------------5/7-------5/7-----------|
E|---------------------------------------------------------------------------------------------|

Verso:
E|--------8-8------8-8------8-8------8-8------8-8------8-8------8-8------8-8------8-8-8-8-8-8--|
B|--------8-8------8-8------8-8------8-8------8-8------8-8------8-8------8-8------8-8-8-8-8-8--|
G|---------------------------------------------------------------------------------------------|
D|---------------------------------------------------------------------------------------------|
A|---------------------------------------------------------------------------------------------|
E|---------------------------------------------------------------------------------------------|

E|---------------------------------------------------------------------------------------------|
B|---------------------------------------------------------------------------------------------|
G|-------------x----------------x--------------------------------------------------------------|
D|-------------x----------------x-------------------------------------------7---------7-------|
A|---------------------------------------------------------------------5/7-------5/7-----------|
E|---------------------------------------------------------------------------------------------|

Refrão:
E|--0----0----0--0--0---0----0--------------0----0----0--0--0---1---0---1--0--3---0----|
B|--1----1----1--1--1---0----0----1--1--1---1----1----1--1--1---3---3---3--3--5---5----|
G|--2----2----0--0--0---0----0----2--2--2---2----2----0--0--0---2---2---2--2--4---4----|
D|--2----2----2--2--2---0----0----3--3--3---2----2----2--2--2---0---0---0--0-----------|
A|--0----0----3--3--3---2----2----3--3--3---0----0----3--3--3--------------------------|
E|----------------------3----3----1--1--1----------------------------------------------|

E|--0----0----0--0--0---0----0--------------0----0----0--0--0---1---0---1--1--3----3---|
B|--1----1----1--1--1---0----0----1--1--1---1----1----1--1--1---3---3---3--3--5----5---|
G|--2----2----0--0--0---0----0----2--2--2---2----2----0--0--0---2---2---2--2--4----4---|
D|--2----2----2--2--2---0----0----3--3--3---2----2----2--2--2---0---0---0--0--2----2---|
A|--0----0----3--3--3---2----2----3--3--3---0----0----3--3--3--------------------------|
E|----------------------3----3----1--1--1----------------------------------------------|

E|--12--------------------12--------------------12--------------------12----------------------|
B|--12--------------------12--------------------12--------------------12----------------------|
G|--12--------------------12--------------------12--------------------12----------------------|
D|--x---------------------x---------------------x---------------------x-----------------------|
A|--14--------------------14--------------------14--------------------14----------------------|
E|--------------------------------------------------------------------------------------------|

E|--------------------------------------------------------------------------------------------|
B|--------------------------------------------------------------------------------------------|
G|--------------------------------------------------------------------------------------------|
D|--------------5---------------------5---------------------5---------------------5-----------|
A|--7----7--5-----7-5-7---7----7--5-----7-5-7---7----7--5-----7-5-7---7----7--5-----7-5-7-----|
E|--------------------------------------------------------------------------------------------|

E|--15--------------------15--------------------12--------------------12-12-12-12-12-12-12-12-|
B|--12--------------------12--------------------12--------------------12-12-12-12-12-12-12-12-|
G|--12--------------------12--------------------12--------------------12-12-12-12-12-12-12-12-|
D|--x---------------------x---------------------x---------------------x--x--x--x--x--x--x--x--|
A|--14--------------------14--------------------14--------------------14-14-14-14-14-14-14-14-|
E|--------------------------------------------------------------------------------------------|

E|--------------------------------------------------------------------------------------------|
B|--------------------------------------------------------------------------------------------|
G|--------------------------------------------------------------------------------------------|
D|--------------5---------------------5---------------------5---------------------5-----------|
A|--7----7--5-----7-5-7---7----7--5-----7-5-7---7----7--5-----7-5-7---7----7--5-----7-5-7-----|
E|--------------------------------------------------------------------------------------------|

E|-------------------------------------------------------------------------------|
B|-------------------------------------------------------------------------------|
G|-------------------------------------------------------------------------------|
D|-----5---5---5---5---5---5---5---5---5---5---5---5---5---5---5---5---5---5---5-|
A|--5h7-5h7-5h7-5h7-5h7-5h7-5h7-5h7-5h7-5h7-5h7-5h7-5h7-5h7-5h7-5h7-5h7-5h7-5h7--|
E|-------------------------------------------------------------------------------|

E|-------------------------------------------------------------------------------|
B|-------------------------------------------------------------------------------|
G|-------------------------------------------------------------------------------|
D|-----5---5---5---5---5---5---5---5---5---5---5---5---5---5---5---5---5---5--5--|
A|--5h7-5h7-5h7-5h7-5h7-5h7-5h7-5h7-5h7-5h7-5h7-5h7-5h7-5h7-5h7-5h7-5h7-5h7------|
E|-------------------------------------------------------------------------------|

Verso 3:

E|----------------------------------------------------------------------------------------|
B|----------------------------------------------------------------------------------------|
G|----------------------------------------------------------------------------------------|
D|----------------------------------------------------------------------------------------|
A|--7-------------------------------------------------------------------------------------|
E|----------------------------------------------------------------------------------------|

E|----------------------------------------------------------------------------------------|
B|----------------------------------------------------------------------------------------|
G|------------7-7---9-------------9----7-7---9--------------------------------------------|
D|-----------------------10-10------------------x-10-10---------------------7---------7--|
A|---------------------------------------------------------------------5/7-------5/7------|
E|----------------------------------------------------------------------------------------|

E|----------------------------------------------------------------------------------------|
B|--10----10----10----10----10----10----10----10----10----10----10----10----10----10------|
G|----------------------------------------------------------------------------------------|
D|----------------------------------------------------------------------------------------|
A|----------------------------------------------------------------------------------------|
E|----------------------------------------------------------------------------------------|

E|----------------------------------------------------------------------------------------|
B|----------------------------------------------------------------------------------------|
G|--9-9-------7-7---9-------------9----7-7---9--------------------------------------------|
D|-----------------------10-10--------------------10-10---------------------7---------7--|
A|---------------------------------------------------------------------5/7-------5/7------|
E|----------------------------------------------------------------------------------------|

Refrão:
E|--0----0----0--0--0---0----0--------------0----0----0--0--0---1---0---1--0--3---0----|
B|--1----1----1--1--1---0----0----1--1--1---1----1----1--1--1---3---3---3--3--5---5----|
G|--2----2----0--0--0---0----0----2--2--2---2----2----0--0--0---2---2---2--2--4---4----|
D|--2----2----2--2--2---0----0----3--3--3---2----2----2--2--2---0---0---0--0-----------|
A|--0----0----3--3--3---2----2----3--3--3---0----0----3--3--3--------------------------|
E|----------------------3----3----1--1--1----------------------------------------------|

E|--0----0----0--0--0---0----0--------------0----0----0--0--0---1---0---1--1--3----3---|
B|--1----1----1--1--1---0----0----1--1--1---1----1----1--1--1---3---3---3--3--5----5---|
G|--2----2----0--0--0---0----0----2--2--2---2----2----0--0--0---2---2---2--2--4----4---|
D|--2----2----2--2--2---0----0----3--3--3---2----2----2--2--2---0---0---0--0--2----2---|
A|--0----0----3--3--3---2----2----3--3--3---0----0----3--3--3--------------------------|
E|----------------------3----3----1--1--1----------------------------------------------|

Outro:
E|--------------------------------------------------------------------------------------|
B|--10----10----10----10----10----10----10----10----10----10----10----10----10----10----|
G|--------------------------------------------------------------------------------------|
D|--------------------------------------------------------------------------------------|
A|--------------------------------------------------------------------------------------|
E|--------------------------------------------------------------------------------------|

E|------------------------------------------------------------------------------------|
B|--10----10----10----10----10----10----10----10----10----10----10----10----10----10--|
G|------------------------------------------------------------------------------------|
D|------------------------------------------------------------------------------------|
A|------------------------------------------------------------------------------------|
E|------------------------------------------------------------------------------------|

  PM .  .  .  .  .  .  .  .  .  .  .  .  .  .  .  .  .  .  .  .  .  .  .  .  .  .  .
E|------------------------------------------------------------------------------------|
B|------------------------------------------------------------------------------------|
G|------------------------------------------------------------------------------------|
D|-----5---5---5---5---5---5---5---5---5---5---5---5---5---5---5---5---5---5---5---5--|
A|--5h7-5h7-5h7-5h7-5h7-5h7-5h7-5h7-5h7-5h7-5h7-5h7-5h7-5h7-5h7-5h7-5h7-5h7-5h7-5h7---|
E|------------------------------------------------------------------------------------|

E|------------------------------------------------------------------------------------|
B|--10----10----10----10----10----10----10----10----10----10----10----10----10----10--|
G|------------------------------------------------------------------------------------|
D|------------------------------------------------------------------------------------|
A|------------------------------------------------------------------------------------|
E|------------------------------------------------------------------------------------|

E|------------------------------------------------------------------------------------|
B|---------------------------------------------------------------9--------------------|
G|---------------------------------------------------------------9--------------------|
D|---------------------------------------------------------------10-------------------|
A|--7------------------------------------------------------------11-------------------| E------------------------------------------------------------------------------------|

E|------------------------------------------------------------------------------------|
B|--10----10----10----10----10----10----10----10----10--------------------------------|
G|------------------------------------------------------------------------------------|
D|------------------------------------------------------------------------------------|
A|------------------------------------------------------------------------------------|
E|------------------------------------------------------------------------------------|

E|------------------------------------------------------------------------------------|
B|--9---------------------9---------------------9---------------------9---------------|
G|--9---------------------9---------------------9---------------------9---------------|
D|--10--------------------10--------------------10--------------------10--------------|
A|--11--------------------11--------------------11--------------------11--------------|
E|------------------------------------------------------------------------------------|

Clipes