busca

Feasting On The Flowers

Red Hot Chili Peppers

Tom: E
Intro:
E|----------------------------------------x-7-x-x-7-7-x-4-x-5-x-x-5-5--------|
B|----------------------------------------x-7-x-x-7-7-x-4-x-5-x-x-5-6--------|
G|------------------------------11/13-----x-8-x-x-8-8-x-4-x-6-x-x-6-6--------|
D|---------------------11p9-11----------9------------------------------------|
A|-11p9-11-------------------------------------------------------------------|
E|-----------12p11-12--------------------------------------------------------|

E|--------------------------------x-7-x-x-7-7-x-4-x-5-x-x-5-5--------|
B|------------------9p7-----------x-7-x-x-7-7-x-4-x-5-x-x-5-6--------|
G|----------9p8---------9---9p8---x-8-x-x-8-8-x-4-x-6-x-x-6-6--------|
D|--------------11--------------9------------------------------------|
A|-11p9-11-----------------------------------------------------------|
E|-------------------------------------------------------------------|


Verse:
C#m
I was walking through the streets 
B                   A
I could not hear my best friend call
C#m
He was feeling incomplete 
    B               A
about to take his final fall
C#m
Last thing I remember there were 
B                  A
tears of blood and just not mine
C#m
Any other day and I would 
N.C.
save you from this cold decline


Chorus:
E
Everything they said about everything
D
Was a coming undone it's a life supreme
F#m                                      C#m
I do and I don't, well I do and I don't, Oh yeah

E
Feasting on the flowers so fast and young
D
It's a light so bright that I bite my tongue
F#m                                      Ab7
I do and I don't, well I do and I don't, Oh yeah

The next dimension, show me in

Intro Riff:
E|----------------------------------------x-7-x-x-7-7-x-4-x-5-x-x-5-5--------|
B|----------------------------------------x-7-x-x-7-7-x-4-x-5-x-x-5-6--------|
G|------------------------------11/13-----x-8-x-x-8-8-x-4-x-6-x-x-6-6--------|
D|---------------------11p9-11----------9------------------------------------|
A|-11p9-11-------------------------------------------------------------------|
E|-----------12p11-12--------------------------------------------------------|

E|--------------------------------x-7-x-x-7-7-x-4-x-5-x-x-5-5--------|
B|------------------9p7-----------x-7-x-x-7-7-x-4-x-5-x-x-5-6--------|
G|----------9p8---------9---9p8---x-8-x-x-8-8-x-4-x-6-x-x-6-6--------|
D|--------------11--------------9------------------------------------|
A|-11p9-11-----------------------------------------------------------|
E|-------------------------------------------------------------------|


Verse:
We were moving in the world, expanding your realities
A force of nature on the verge, commanding abnormalities
Last thing I remember there was ringing in my selfish ears
Twenty-Six a number much too small for someone's golden years


Chorus:
E
Everything they said about everything
D
Was a coming undone it's a life supreme
F#m                                      C#m
I do and I don't, well I do and I don't, Oh yeah

E
Feasting on the flowers so fast and young
D
It's a light so bright that I bite my tongue
F#m                                      Ab7
I do and I don't, well I do and I don't, Oh yeah

The next dimension, show me in


Solo:
E|-----------------------------------------------------|
B|------------12b14r12-------------------14b16r14------|
G|--11-13p11-----------13~~~---11-13p11-----------13---|
D|-----------------------------------------------------|
A|-----------------------------------------------------|
E|-----------------------------------------------------|

E|-----------------------------------------------------|
B|-------------16b17r16--14~~~--12-14p12---------------|
G|---11-13p11-----------------------------11b13~~~~~---|
D|-----------------------------------------------------|
A|-----------------------------------------------------|
E|-----------------------------------------------------|


C#m
You get a little bit more this time when
    Ab7
You give a little bit for your brother's kind
F#m                         E
Like she always said, "Oh, Don't look back, just look ahead"

C#m
You sign a little bit stronger when you
  Ab7
Remember the song of your old best friend
F#m                         E
Like she always said, "Oh, Don't look back, just look ahead"


Intro Riff:
E|----------------------------------------x-7-x-x-7-7-x-4-x-5-x-x-5-5--------|
B|----------------------------------------x-7-x-x-7-7-x-4-x-5-x-x-5-6--------|
G|------------------------------11/13-----x-8-x-x-8-8-x-4-x-6-x-x-6-6--------|
D|---------------------11p9-11----------9------------------------------------|
A|-11p9-11-------------------------------------------------------------------|
E|-----------12p11-12--------------------------------------------------------|

E|--------------------------------x-7-x-x-7-7-x-4-x-5-x-x-5-5--------|
B|------------------9p7-----------x-7-x-x-7-7-x-4-x-5-x-x-5-6--------|
G|----------9p8---------9---9p8---x-8-x-x-8-8-x-4-x-6-x-x-6-6--------|
D|--------------11--------------9------------------------------------|
A|-11p9-11-----------------------------------------------------------|
E|-------------------------------------------------------------------|


Chorus:
E
Everything they said about everything
D
Was a coming undone it's a life supreme
F#m                                      C#m
I do and I don't, well I do and I don't, Oh yeah

E
Feasting on the flowers so fast and young
D
It's a light so bright that I bite my tongue
F#m                                      Ab7
I do and I don't, well I do and I don't, Oh yeah

Clipes

Cifra Club Pro

Aproveite o Cifra Club com benefícios exclusivos e sem anúncios
7 dias grátis
Cifra Club Pro
Aproveite o Cifra Club com benefícios exclusivos e sem anúncios
7 dias grátis