Tom: G
#1t1#intro
#1t2#g---------------------------------
d--6-5-----3--5----------------
a--------5----------5-5--------
e--------------------------------#/1t2##/1t1#

#2t1#verse
#2t2#g--------------------
d--------------------
a---0--3--5-5-----
e--------------------#/2t2##/2t1#

#3t1#Chorus
#3t2#g---------------------------------------------
d---------------------------------------------
a--5-5-----------------2-2-3-3-4-4------
e---------2--3--5---5----------------------#/3t2##/3t1#

Guitar Solo---"ah move over and let mr huckleberry take over" part
repeat each several times
#4t1##4t2#g-------7------------5h7----------5---------
d----------------------------------------------
a--5-----------0-0-----------3--------------
e---------------------------------------------#/4t2##/4t1#

after the last chorus play the first chorus once then this
and keep alternating
#5t1##5t2#g-------------------------------------------
d-------------------------------------------
a-7--7--------------4-4-5-5-6-6-------
e-------4-5-7----7-----------------------#/5t2##/5t1#
Composição: Jimi HendrixColaboração e revisão: Guilherme Oliveira