busca

Funky Crime

Red Hot Chili Peppers

Tom: F#
Intro  1ª parte:
   G#m7dim5 Em7dim5 Bbm7dim5 F#m7dim5 Am7dim5
E|-7~------3~------9~-------5~-------8~----------------------|
B|-7~------3~------9~-------5~-------8~----------------------|
G|-7~------3~------9~-------5~-------8~----------------------|
D|-6~------2~------8~-------4~-------7~----------------------|
A|-----------------------------------------------------------|
E|-------------------------------------------4^--------------|

2ª parte:

E|----|---------|----|------------|
B|----|---------|----|------------|
G|----|---------|----|------------|
D|-E9-|---------|-E9-|--5---------|
A|----|---------|----|------------|
E|----|--9--10--|----|-----4--x---|

---------------------------------------

Verso 1:
E|----|---------|----|------------|
B|----|---------|----|------------|
G|----|---------|----|------------|
D|-E9-|---------|-E9-|--5---------|
A|----|---------|----|------------|
E|----|--9--10--|----|-----4--x---|
Why do you do what you do
I do what I want to do
Who said you could do what you do
I told you who told me to
I do what I want to do
I do what I want to do
-------------------------------------

Refrão:
E|-----------------------------|---------------------------------------------|
B|-----------------------------|---------------------------------------------|
G|-----------------------------|---------------------------------------------|
D|-----------------------------|---------------------------------------------|
A|-----------------------------|------------------------------------7-7-7~~--|
E|-9/10--7/9--6----5--4^-------|--9/10--7/9--6-6--5--4-----------------------|
Funky crime funky crime
Don't you know funk's colour's blind
Well I've committed a funky crime

E|----|---------|----|------------|
B|----|---------|----|------------|
G|----|---------|----|------------|
D|-E9-|---------|-E9-|--5---------|
A|----|---------|----|------------|
E|----|--9--10--|----|-----4--x---|

   Against a state of mind
----------------------------------------------

Verso 2:
E|----|---------|----|-------------|
B|----|---------|----|-------------|
G|----|---------|----|-------------|
D|-E9-|---------|-E9-|-------------|
A|----|---------|----|--4/5--------|
E|----|--9--10--|----|------4--x---|

Hey you mister interview
I don't have to answer you
This is what I grew into
Don't judge me and my soul stew
Funk is my attitude
Funk is my attitude
--------------------------------------------

Refrão:
E|-----------------------------|---------------------------------------------|
B|-----------------------------|---------------------------------------------|
G|-----------------------------|---------------------------------------------|
D|-----------------------------|---------------------------------------------|
A|-----------------------------|------------------------------------7-7-7~~--|
E|-9/10--7/9--6----5--4^-------|--9/10--7/9--6-6--5--4-----------------------|

Funky crime funky crime
Don't you know funk's colour's blind
Well I've committed a funky crime
E|----|---------|----|-------------|
B|----|---------|----|-------------|
G|----|---------|----|-------------|
D|-E9-|---------|-E9-|-------------|
A|----|---------|----|--4/5--------|
E|----|--9--10--|----|------4--x---|

    Against a state of mind
----------------------------------------

Ponte 1:
E|----|---------|----|-------------|
B|----|---------|----|-------------|
G|----|---------|----|-------------|
D|-E9-|---------|-E9-|-------------|
A|----|---------|----|--4/5--------|
E|----|--9--10--|----|------4--x---|

-----------------------------------------

Verso 3:

E|-----|----------|-----|--------------------|
B|-----|----------|-----|--------------------|
G|-----|----------|-----|--------------------|
D|-F#9-|----------|-F#9-|--------------------|
A|-----|----------|-----|--12----------------|
E|-----|--11--12--|-----|------------x-12/14-|
Barriers of race
In the media take place
Tellin' you there is no room
For what you do, don't budge
There's no groove to your cold gloom
And who made you the judge
Always room for funky tunes
And yes I funk it up
I funk it up
-------------------------------------

Ponte 2:
E|---------------------------|------|--------------------|
B|---------------------------|------|--------------------|
G|-----------------2---------|------|--------------------|
D|-4----4--2-----------4^----|--2^--|--------------------|
A|-------------4-------------|------|--------------------|
E|---------------------------|------|--0---2---5---2-----|
                              Funky boy

E|------------------------|------|--------------------|
B|------------------------|------|--------------------|
G|-----------------2------|------|--------------------|
D|-4----4--2---------4^---|--2^--|--------------------|
A|--------------4---------|------|----4---2-----------|
E|------------------------|------|-------------5---2--|
                                  Meets a funky girl

E|----------------------------|------|-----------------------|
B|----------------------------|------|-----------------------|
G|------------------2---------|------|-----------------------|
D|-4----4--2-----------4^-----|--2^--|-----------------------|
A|--------------4-------------|------|(virada de baixo)-9/---|
E|----------------------------|------|-----------------------|
                                Make it funky, baby

E|---------------------------|------|---------------------------------------------------|
B|---------------------------|------|---------------------------------------------------|
G|------------------2--------|------|------------------2--1--0--------------------------|
D|-4----4--2-----------4^----|--2^--|--1--2--3--4---------------4--3--2--1^^-------0^---|
A|--------------4------------|------|---------------------------------------------------|
E|---------------------------|------|---------------------------------------------------|
                               Cause the funk is crazy
----------------------------------------------------------

Ponte 1:
E|----|---------|----|-------------|
B|----|---------|----|-------------|
G|----|---------|----|-------------|
D|-E9-|---------|-E9-|-------------|
A|----|---------|----|--4/5--------|
E|----|--9--10--|----|------4--x---|

----------------------------------------------------------

Verso 4:  
E|----|---------|----|-------------|
B|----|---------|----|-------------|
G|----|---------|----|-------------|
D|-E9-|---------|-E9-|-------------|
A|----|---------|----|--4/5--------|
E|----|--9--10--|----|------4--x---|
Why do you do what you do
I do what I want to do
Who said you could do what you do
I told you who told me to
I do what I want to do
I do what I want to do
-------------------------------------------

Refrão:
E|-----------------------------|---------------------------------------------|
B|-----------------------------|---------------------------------------------|
G|-----------------------------|---------------------------------------------|
D|-----------------------------|---------------------------------------------|
A|-----------------------------|------------------------------------7-7-7~~--|
E|-9/10--7/9--6----5--4^-------|--9/10--7/9--6-6--5--4-----------------------|
Funky crime funky crime
Don't you know funk's colour's blind
Well I've committed a funky crime

   A base do solo:
E|----|----------|----|------------|
B|----|----------|----|------------|
G|----|----------|----|------------|
D|-E9-|----------|-E9-|------------|
A|----|--7--5/7--|----|--4--7/5/7--|
E|----|----------|----|------------|

  Against a state of mind
Funky crime
Funky crime
A funky funky crime
The crime is funky 

Solinho:

 Na útima parte quando quase acobou o solo, ele faz isso para terminar
E|----|----------|----|------------------|
B|----|----------|----|------------------|
G|----|----------|----|------------------|
D|-E9-|----------|-E9-|------------------|
A|----|--7--5/7--|----|--4-7^-5/7/5/7^^--|
E|----|----------|----|------------------|

Clipes

Cifra Club Pro

Aproveite o Cifra Club com benefícios exclusivos e sem anúncios
7 dias grátis
Cifra Club Pro
Aproveite o Cifra Club com benefícios exclusivos e sem anúncios
7 dias grátis