Am
123
X02210
Bb
234
X13331
C
123
X32010
D
123
XX0232
Dm
123
XX0231
Dsus
123
XX0232
F
234
133211
G
123
320003
Tom: G
Não está 100% correta, ou seja, escute a música para tirar melhor...

#1t1#Intro 0:02
    Bb       Am           G         F
#1t2#E|---------------------|----------------------|
B|--6----6-------------|--3----3----1----1----|
G|--7----7----5----5---|--4----4----2----2----|  X 2
D|--8----8----7----7---|--5----5----3----3----|
A|--8----8----7----7---|--5----5----3----3----|
E|------------5----5---|----------------------|#/1t2##/1t1#

#2t1#Verso 00:13 - "It must have been your funny face"
#2t2#E|---------------------|----------------------|
B|--6----6-------------|--3----3----1----1----|
G|--7----7----5----5---|--4----4----2----2----|  X 4
D|--8----8----7----7---|--5----5----3----3----|
A|--8----8----7----7---|--5----5----3----3----|
E|------------5----5---|----------------------|#/2t2##/2t1#

Bb                     Am
It must have been your funny face
  G                      F  
It must have been your love
Bb                     Am 
It must have been your paper chase that
  G             F 
Wasn't quite enough

Bb                     Am
It must have been your tiny dance that
G               F 
Made me laugh out loud

Bb                     Am
Must have been your angel dust that
G                F 
Put me on your cloud

#3t1#Pre Refão 0:36 - "You're the reason why"
#3t2#e|--------6----------5-------------------------------|
B|------------------------------8----6h8 8-----------|
G|----5/7---5----5/7---7---5/7----7--------5---------|
D|---------------------------------------------------|
A|---------------------------------------------------|
E|---------------------------------------------------|#/3t2##/3t1#

#4t1##4t2#e|--------6----------5----------------------10-------|
B|------------------------------8--------------------|
G|----5/7---5----5/7---7---5/7----7---7/10-------10-|
D|---------------------------------------------------|
A|---------------------------------------------------|
E|---------------------------------------------------|#/4t2##/4t1#


#5t1#Refrão 0:47 w/ Wah - "It must have been your love"
#5t2#e|-----------------------------------------------------------------------------------|
B|-------6h8p6---6-------10----10h12p10---10-----8--8h10p8---------6---6h8p6---------|
G|---7-xx------7-------10---10----------10------9-9--------9p7---7---7-------7-------|
D|-----------------------------------------------------------------------------------|
A|-----------------------------------------------------------------------------------|
E|-----------------------------------------------------------------------------------|#/5t2##/5t1#

Refrão 1

Bb           C         Dm Dsus  
It must have been your love... oh
Bb           C         G   F  
It must have been your love... I said
Bb           C         D  Dsus 
It must have been your love... In a little bit...
Bb           C         G   F
It must have been your love

#6t1##6t2#e|---------------------------------------------------------------------8/10~---------|
B|-------6h8p6---6-------10----10h12p10---10-----8--8h10p8---------6-----------------|
G|---7-xx------7-------10---10----------10------9-9--------9p7---7---7---------------|
D|-----------------------------------------------------------------------------------|
A|-----------------------------------------------------------------------------------|
E|-----------------------------------------------------------------------------------|#/6t2##/6t1#

#7t1##7t2#e|-----------------------------------------------------------------------------------|
B|-------6h8p6---6-------10----10h12p10---10-----8--8h10p8---------6---6h8p6---------|
G|---7-xx------7-------10---10----------10------9-9--------9p7---7---7-------7-------|
D|-----------------------------------------------------------------------------------|
A|-----------------------------------------------------------------------------------|
E|-----------------------------------------------------------------------------------|#/7t2##/7t1#

#8t1##8t2#e|-----------------------------------------------------------------------------------|
B|-------6h8p6---6-------10----10h12p10---10-----8--8h10p8---------6---6h8p6---------|
G|---7-xx------7-------10---10----------10------9-9--------9p7---7---7-------7-------|
D|-----------------------------------------------------------------------------------|
A|-----------------------------------------------------------------------------------|
E|-----------------------------------------------------------------------------------|#/8t2##/8t1#

#9t1#Verse 01:10 - "It must have been your poppy eyes"
#9t2#E|---------------------|----------------------|
B|--6----6-------------|--3----3----1----1----|
G|--7----7----5----5---|--4----4----2----2----|  X 4
D|--8----8----7----7---|--5----5----3----3----|
A|--8----8----7----7---|--5----5----3----3----|
E|------------5----5---|----------------------|#/9t2##/9t1#


Bb           C         Dm Dsus  
It must have been your love... oh
Bb           C         G   F  
It must have been your love... I said
Bb           C         D  Dsus 
It must have been your love... In a little bit...
Bb           C         G   F
It must have been your love

#10t1#Chorus 1:33 w/ Wah - "It must have been your love"
#10t2#e|-----------------------------------------------------------------------------------|
B|-------6h8p6---6-------10----10h12p10---10-----8--8h10p8---------6---6h8p6---------|
G|---7-xx------7-------10---10----------10------9-9--------9p7---7---7-------7-------|
D|-----------------------------------------------------------------------------------|
A|-----------------------------------------------------------------------------------|
E|-----------------------------------------------------------------------------------|#/10t2##/10t1#

#11t1##11t2#e|---------------------------------------------------------------------8/10~---------|
B|-------6h8p6---6-------10----10h12p10---10-----8--8h10p8---------6-----------------|
G|---7-xx------7-------10---10----------10------9-9--------9p7---7---7---------------|
D|-----------------------------------------------------------------------------------|
A|-----------------------------------------------------------------------------------|
E|-----------------------------------------------------------------------------------|#/11t2##/11t1#

#12t1##12t2#e|-----------------------------------------------------------------------------------|
B|-------6h8p6---6-------10----10h12p10---10-----8--8h10p8---------6---6h8p6---------|
G|---7-xx------7-------10---10----------10------9-9--------9p7---7---7-------7-------|
D|-----------------------------------------------------------------------------------|
A|-----------------------------------------------------------------------------------|
E|-----------------------------------------------------------------------------------|#/12t2##/12t1#

#13t1##13t2#e|-----------------------------------------------------------------------------------|
B|-------6h8p6---6-------10----10h12p10---10-----8--8h10p8---------6---6h8p6---------|
G|---7-xx------7-------10---10----------10------9-9--------9p7---7---7-------7-------|
D|-----------------------------------------------------------------------------------|
A|-----------------------------------------------------------------------------------|
E|-----------------------------------------------------------------------------------|#/13t2##/13t1#

Refrão 2
Bb        Am       G 
You're my angel baby
 C         F
You're my darling
 C         Dsus
You're my star
Bb    Am       G   
Lo lo lo lolita
 C       F      C       Dsus  
Let her see me deep in love

#14t1#Bridge 1:56 - "You're my angel baby"
#14t2#e|---------------------------------------------------------------------------|
B|--------6----------------10----------------8-------------6-----------------|
G|------7---7-----------10----10-----------8---8---------7---7---------------| X 4
D|----8-------8------10----------10------8-------8-----7-------7-------------|
A|--8--------------8-------------------6-------------5-----------------------|
E|---------------------------------------------------------------------------|#/14t2##/14t1#

#15t1#     2:19
#15t2#E|---------------------|----------------------|
B|--6----6-------------|--3----3----1----1----|
G|--7----7----5----5---|--4----4----2----2----|  X 2
D|--8----8----7----7---|--5----5----3----3----|
A|--8----8----7----7---|--5----5----3----3----|
E|------------5----5---|----------------------|#/15t2##/15t1#


#16t1#Pre Chorus 2:31 - "You're the reason why"
#16t2#e|--------6----------5-------------------------------|
B|------------------------------8----6h8 8-----------|
G|----5/7---5----5/7---7---5/7----7--------5---------|
D|---------------------------------------------------|
A|---------------------------------------------------|
E|---------------------------------------------------|#/16t2##/16t1#

#17t1##17t2#e|--------6----------5----------------------10-------|
B|------------------------------8--------------------|
G|----5/7---5----5/7---7---5/7----7---7/10-------10-|
D|---------------------------------------------------|
A|---------------------------------------------------|
E|---------------------------------------------------|#/17t2##/17t1#

Bb           C         Dm Dsus  
It must have been your love... oh
Bb           C         G   F  
It must have been your love... I said
Bb           C         D  Dsus 
It must have been your love... In a little bit...
Bb           C         G   F
It must have been your love

#18t1#Refrão 2:43 w/ Wah - "It must have been your love"
#18t2#e|-----------------------------------------------------------------------------------|
B|-------6h8p6---6-------10----10h12p10---10-----8--8h10p8---------6---6h8p6---------|
G|---7-xx------7-------10---10----------10------9-9--------9p7---7---7-------7-------|
D|-----------------------------------------------------------------------------------|
A|-----------------------------------------------------------------------------------|
E|-----------------------------------------------------------------------------------|#/18t2##/18t1#

#19t1##19t2#e|---------------------------------------------------------------------8/10~---------|
B|-------6h8p6---6-------10----10h12p10---10-----8--8h10p8---------6-----------------|
G|---7-xx------7-------10---10----------10------9-9--------9p7---7---7---------------|
D|-----------------------------------------------------------------------------------|
A|-----------------------------------------------------------------------------------|
E|-----------------------------------------------------------------------------------|#/19t2##/19t1#

#20t1##20t2#e|-----------------------------------------------------------------------------------|
B|-------6h8p6---6-------10----10h12p10---10-----8--8h10p8---------6---6h8p6---------|
G|---7-xx------7-------10---10----------10------9-9--------9p7---7---7-------7-------|
D|-----------------------------------------------------------------------------------|
A|-----------------------------------------------------------------------------------|
E|-----------------------------------------------------------------------------------|#/20t2##/20t1#

#21t1##21t2#e|-----------------------------------------------------------------------------------|
B|-------6h8p6---6-------10----10h12p10---10-----8--8h10p8---------6---6h8p6---------|
G|---7-xx------7-------10---10----------10------9-9--------9p7---7---7-------7-------|
D|-----------------------------------------------------------------------------------|
A|-----------------------------------------------------------------------------------|
E|-----------------------------------------------------------------------------------|#/21t2##/21t1#

Refrão 2
Bb        Am       G 
You're my angel baby
 C         F
You're my darling
 C         Dsus
You're my star
Bb    Am       G   
Lo lo lo lolita
 C       F      C       Dsus  
Let her see me deep in love

#22t1#Bridge 3:05 - "You're my angel baby"
#22t2#e|---------------------------------------------------------------------------|
B|--------6----------------10----------------8-------------6-----------------|
G|------7---7-----------10----10-----------8---8---------7---7---------------|  X 4
D|----8-------8------10----------10------8-------8-----7-------7-------------|
A|--8--------------8-------------------6-------------5-----------------------|
E|---------------------------------------------------------------------------|#/22t2##/22t1#

#23t1#      3:29 - "I've stared at eyes in a crooked frown"
#23t2#e|---------------------------------------------------------------------------|
B|--------6----------------10----------------8-------------6-----------------|
G|------7---7-----------10----10-----------8---8---------7---7---------------|  X 4
D|----8-------8------10----------10------8-------8-----7-------7-------------|
A|--8--------------8-------------------6-------------5-----------------------|
E|---------------------------------------------------------------------------|#/23t2##/23t1#

Nessa parte fica cantando "It must have been your love" até o final

#24t1#Solo 3:53
#24t2#e|---------------------------------------------------------------------------|
B|--13b----13p11-13----11p10-11---11p10-11--13--13b---13p11-13--13b-11-------|
G|---------------------------------------------------------------------------|
D|---------------------------------------------------------------------------|
A|---------------------------------------------------------------------------|
E|---------------------------------------------------------------------------|#/24t2##/24t1#

#25t1##25t2#e|-----------------------------18---------17--------15----------20-18-20-----|
B|-11p10--11b13r11--11--13--13b--13----13b--13---11b-----11/13---------------|
G|---------------------------------------------------------------------------|
D|---------------------------------------------------------------------------|
A|---------------------------------------------------------------------------|
E|---------------------------------------------------------------------------|#/25t2##/25t1#

#26t1##26t2#e|-----18------17-17br17-15--15/13--13---------------------------------------|
B|-13b------13b-------------------------11/13---13b--13p11--13---11p10-11----|
G|---------------------------------------------------------------------------|
D|---------------------------------------------------------------------------|
A|---------------------------------------------------------------------------|
E|---------------------------------------------------------------------------|#/26t2##/26t1#

#27t1##27t2#e|--------------------------------------------------------18-----17----------|
B|-11p10--11--11p10--11----13b-13p11-13--11p10-11--13--13b----13b------------|
G|------12---------12--------------------------------------------------------|
D|---------------------------------------------------------------------------|
A|---------------------------------------------------------------------------|
E|---------------------------------------------------------------------------|#/27t2##/27t1#

#28t1##28t2#e|-17b18r17--15---18b-18-20-20b21--20p18--20b21p18-18-17-18-17-18-17-18-17---|
B|---------------------------------------------------------------------------|
G|---------------------------------------------------------------------------|
D|---------------------------------------------------------------------------|
A|---------------------------------------------------------------------------|
E|---------------------------------------------------------------------------|#/28t2##/28t1#

#29t1##29t2#e|-13---------|
B|------------|
G|------------|
D|------------|
A|------------|
E|------------|#/29t2##/29t1#
Composição: Chad Smith;Flea;John FruscianteColaboração e revisão: Gabriel Martins