busca

Get Up And Jump

Red Hot Chili Peppers

Tom: Gm
Intro:
E|--9--x-9-x-x-9-9-x-9--x-9-9-9-9---------9-9-9-9-----|
B|--7--x-7-x-x-7-7-x-7--x-7-7-7-7---------7-7-7-7-----|
G|--7--x-7-x-x-7-7-x-7--x-7-7-7-7---------7-7-7-7-----|
D|----------------------------------------------------|
A|----------------------------------------------------|
E|----------------------------------------------------|


E|--9--x-9-x-x-9-9--9-9-9-9-9-9-9-9-----9-9-9-9-9-9-9-9------|
B|--7--x-7-x-x-7-7--7-7-7-7-7-7-7-7-----7-7-7-7-7-7-7-7------|
G|--7--x-7-x-x-7-7--7-7-7-7-7-7-7-7-----7-7-7-7-7-7-7-7------|
D|-----------------------------------------------------------|
A|-----------------------------------------------------------|
E|-----------------------------------------------------------|

Verso:
E|--------------------------|
B|--------------------------|
G|--3p0---------------------|
D|------3---5-0-3-0-3-0-3-0-|
A|--------------------------|
E|--------------------------|

Refrão:
                            (6x)
E|------------------------|--------------|
B|------------------------|--------------|
G|---7-7-7------7-7-7-7-5-|----7-7-7-----|
D|---5-5-5------5-5-5-----|----5-5-5-----|
A|------------------------|--------------|
E|--5----------5----------|--5-----------|

Passagem:

(2:10)
E|-------------------|
B|-------------------|
G|--------7-7-7------|
D|--7-7-7-5-5-5------|
A|-------------------|
E|-------------------|

Clipes