Goodbye Angels

Red Hot Chili Peppers

Am
123
X02210
C
123
X32010
D
123
XX0232
Dm
123
XX0231
Em
12
022000
F
234
133211
G
123
320003
Tom: G
                                           INTRO

[Guitar 1 Clean]

#1t1#                   Am                          D                         C
#1t2#E|---------------------------------------------------------------------------------------------|
B|------1-----1-----1-----1-----1--------7-----7----7-------5-----5-----5-----5-----5----------|
G|------------------------------------------------------------------------------------------2--|
D|---------------------------------------------------------------------------------------------|
A|---0-----0-----0-----0-----0----0h3/5-----5----5-----5/3-----3-----3-----3-----3-----3-------|
E|---------------------------------------------------------------------------------------1-----|#/1t2##/1t1#
#2t1#           F                     G                       C                    F
#2t2#E|---------------------------------------------------------------------------------------------|
B|---------------------------------------------------------------------------------------------|
G|------2-----2-----4-----4-----4-----4-----4-------9-----9-----9-------2-----2-----2----2-----|
D|---------------------------------------------------------------------------------------------|
A|---------------------------------------------------------------------------------------------|
E|----1----1-----3-----3-----3-----3-----3-----3/8-----8-----8-----8\1-----1-----1-----1-------|#/2t2##/2t1#
#3t1#                              G
#3t2#E|---------------------------------------------------------------------------|
B|---------------------------------------------------------------------------|
G|------2-----2-----2-----4-----4h5------------------------------------------|
D|---------------------------------------------------------------------------|
A|---------------------------------------------------------------------------|
E|---1-----1-----1-----3-----3-----------------------------------------------|#/3t2##/3t1#

                                       VERSE 1

[Guitar 1 Clean](0:11)

#4t1#                   Am                          D                         C
#4t2#E|---------------------------------------------------------------------------------------------|
B|------1-----1-----1-----1-----1--------7-----7----7-------5-----5-----5-----5-----5----------|
G|------------------------------------------------------------------------------------------2--|
D|---------------------------------------------------------------------------------------------|
A|---0-----0-----0-----0-----0----0h3/5-----5----5-----5/3-----3-----3-----3-----3-----3-------|
E|---------------------------------------------------------------------------------------1-----|#/4t2##/4t1#
#5t1#           F                     G                       C                    F
#5t2#E|---------------------------------------------------------------------------------------------|     x6
B|---------------------------------------------------------------------------------------------|
G|------2-----2-----4-----4-----4-----4-----4-------9-----9-----9-------2-----2-----2----2-----|
D|---------------------------------------------------------------------------------------------|
A|---------------------------------------------------------------------------------------------|
E|---1-----1-------3-----3-----3-----3-----3-----3/8-----8-----8-----8\1-----1-----1-----1-----|#/5t2##/5t1#
#6t1#                              G
#6t2#E|---------------------------------------------------------------------------|
B|---------------------------------------------------------------------------|
G|------2-----2-----2-----4-----4h5------------------------------------------|
D|---------------------------------------------------------------------------|
A|---------------------------------------------------------------------------|
E|---1-----1-----1-----3-----3-----------------------------------------------|#/6t2##/6t1#

                                     CHORUS

[Guitar 1](1:14)

#7t1#             increasing the bpm until drums breakdown
#7t2#E|---------------------------------------------------------------------------|
B|---10---10-10-10-10--10-10-1--10-10-10--10-10-10-10-10-10-10-10------------|
G|---------------------------------------------------------------------------|
D|---------------------------------------------------------------------------|
A|---------------------------------------------------------------------------|
E|---------------------------------------------------------------------------|#/7t2##/7t1#

#8t1#This section stars at (1:19)
#8t2#E|---------------------------------------------------------------------------|
B|---10---10-10-10--10-10-10--x-10-10-x--------------------------------------|
G|---------------------------------------------------------------------------|
D|---------------------------------------------------------------------------|      x8
A|---------------------------------------------------------------------------|
E|---------------------------------------------------------------------------|#/8t2##/8t1#

[Guitar 2 Distortion+LFO MoogMoogerfooger or Wah] (1:27)/(1:39)

#9t1##9t2#E|---17p15-x--15p13-x--13p12-x--12p10-x--10p8-8~~----------------------------|
B|---------------------------------------------------------------------------|
G|---------------------------------------------------------------------------|
D|---------------------------------------------------------------------------|
A|---------------------------------------------------------------------------|
E|---------------------------------------------------------------------------|#/9t2##/9t1#



                                       VERSE 2

[Guitar 1 Clean](1:41)

#10t1#                   Am                          D                         C
#10t2#E|---------------------------------------------------------------------------------------------|
B|------1-----1-----1-----1-----1--------7-----7----7-------5-----5-----5-----5-----5----------|
G|------------------------------------------------------------------------------------------2--|
D|---------------------------------------------------------------------------------------------|
A|---0-----0-----0-----0-----0----0h3/5-----5----5-----5/3-----3-----3-----3-----3-----3-------|
E|---------------------------------------------------------------------------------------1-----|#/10t2##/10t1#
#11t1#           F                     G                       C                    F
#11t2#E|---------------------------------------------------------------------------------------------|
B|---------------------------------------------------------------------------------------------|
G|------2-----2-----4-----4-----4-----4-----4-------9-----9-----9-------2-----2-----2----2-----|
D|---------------------------------------------------------------------------------------------|       x4
A|---------------------------------------------------------------------------------------------|
E|---1-----1-------3-----3-----3-----3-----3-----3/8-----8-----8-----8\1-----1-----1-----1-----|#/11t2##/11t1#
#12t1#                              G
#12t2#E|---------------------------------------------------------------------------|
B|---------------------------------------------------------------------------|
G|------2-----2-----2-----4-----4h5------------------------------------------|
D|---------------------------------------------------------------------------|
A|---------------------------------------------------------------------------|
E|---1-----1-----1-----3-----3-----------------------------------------------|#/12t2##/12t1#

[Guitar 3 Clean+Reverb] Fill 1 at (1:52) 

#13t1##13t2#E|---------------------------------------------------------------------------|
B|---12-------------13~------------------------------------------------------|
G|-------12--12h14-----------------------------------------------------------|
D|---------------------------------------------------------------------------|
A|---------------------------------------------------------------------------|
E|---------------------------------------------------------------------------|#/13t2##/13t1#

#14t1#Fill 2 at(2:03)
#14t2#E|--------------------------------18--------------15--------------15---------|
B|---12-------------13~------18b19--r18-18---15b16--r16-16---15b16---13------|
G|-------12--12h14-----------------------------------------------------------|
D|---------------------------------------------------------------------------|
A|---------------------------------------------------------------------------|
E|---------------------------------------------------------------------------|#/14t2##/14t1#

#15t1##15t2#E|--------------------------------18--------------15--------------17--17~~---|
B|---12-------------13~------18b19--r18-18---15b16--r16-16---17b18-----------|
G|-------12--12h14-----------------------------------------------------------|
D|---------------------------------------------------------------------------|
A|---------------------------------------------------------------------------|
E|---------------------------------------------------------------------------|#/15t2##/15t1#

                                      CHORUS
[Guitar 1] (2:26)
#16t1##16t2#E|---------------------------------------------------------------------------|
B|---10---10-10-10--10-10-10--x-10-10-x--------------------------------------|
G|---------------------------------------------------------------------------|
D|---------------------------------------------------------------------------|      x8
A|---------------------------------------------------------------------------|
E|---------------------------------------------------------------------------|#/16t2##/16t1#

[Guitar 2 Distortion+LFO MoogMoogerfooger or Wah] (2:34)/(2:46)

#17t1##17t2#E|---17p15-x--15p13-x--13p12-x--12p10-x--10p8-8~~----------------------------|
B|---------------------------------------------------------------------------|
G|---------------------------------------------------------------------------|
D|---------------------------------------------------------------------------|
A|---------------------------------------------------------------------------|
E|---------------------------------------------------------------------------|#/17t2##/17t1#

                                          BRIDGE
[Guitar 1 Clean](2:49)
#18t1#                       Em                                       Dm
#18t2#E|---12------12------12-------12------12--------10------10------10------10-----10---------------|
B|------12-------12------12------12------12--------10------10------10------10-----10------------|
G|---------12-------12------12------12------12--------10------10------10-----10------10---------|   x4
D|----------------------------------------------------------------------------------------------|
A|----------------------------------------------------------------------------------------------|
E|----------------------------------------------------------------------------------------------|#/18t2##/18t1#
                                    
                                          VERSE 3

#19t1#[Guitar 1]
                   Am                          D                         C
#19t2#E|---------------------------------------------------------------------------------------------|
B|------1-----1-----1-----1-----1--------7-----7----7-------5-----5-----5-----5-----5----------|
G|------------------------------------------------------------------------------------------2--|
D|---------------------------------------------------------------------------------------------|
A|---0-----0-----0-----0-----0----0h3/5-----5----5-----5/3-----3-----3-----3-----3-----3-------|
E|---------------------------------------------------------------------------------------1-----|#/19t2##/19t1#
#20t1#           F                     G                       C                    F
#20t2#E|---------------------------------------------------------------------------------------------|
B|---------------------------------------------------------------------------------------------|   x2
G|------2-----2-----4-----4-----4-----4-----4-------9-----9-----9-------2-----2-----2----2-----|
D|---------------------------------------------------------------------------------------------|
A|---------------------------------------------------------------------------------------------|
E|---1-----1-------3-----3-----3-----3-----3-----3/8-----8-----8-----8\1-----1-----1-----1-----|#/20t2##/20t1#
#21t1#                              G
#21t2#E|---------------------------------------------------------------------------|
B|---------------------------------------------------------------------------|
G|------2-----2-----2-----4-----4h5------------------------------------------|
D|---------------------------------------------------------------------------|
A|---------------------------------------------------------------------------|
E|---1-----1-----1-----3-----3-----------------------------------------------|#/21t2##/21t1#

                                       SOLO

[Guitar 4 Wilson Effects Fuzz+Ibanez WW-10] (3:43)

#22t1##22t2#E|--x/---19-19~-----------17-17-17------------17-17-17-----------17-17-17-----------17-17-17---|
B|--x/--------------x--x----------------x--x---------------x--x---------------x--x-------------|
G|--x/-------------14-14---------------14-14--------------14-14--------------14-14-------------|
D|--x/-----------------------------------------------------------------------------------------|
A|--x/-----------------------------------------------------------------------------------------|
E|--x/-----------------------------------------------------------------------------------------|#/22t2##/22t1#
         +  +       +  +   o  o  o     +  +   o  o  o     +  +   o  o  o      +  +   o  o  o        x2
                                                                               
#23t1##23t2#E|-------------15-15-15-------15---------------------------------------------|
B|----------------------17-17-------------17-17-17---------------------------|
G|---17-17-17--------------------16-16-16----------16-14~--------------------|
D|---------------------------------------------------------------------------|
A|---------------------------------------------------------------------------|
E|---------------------------------------------------------------------------|#/23t2##/23t1#
     +  +  +   o  o  o  +  +  +  o  o  o  +  +  +  o

#24t1##24t2#E|--------17-17-17--------17-17-17--------17-17-17-------17-17-17---|
B|---x--x------------x--x------------x--x-----------x--x------------|
G|--14-14-----------14-14-----------14-14----------14-14------------|
D|------------------------------------------------------------------|
A|------------------------------------------------------------------|
E|------------------------------------------------------------------|#/24t2##/24t1#
    +  +  o  o  o   +  +  o  o  o  +  +   o  o  o   +  +   o  o  o       
                                                                                           x2
#25t1##25t2#E|--17-15----15--------------------------------------------------------------|
B|--------17----17-15----15--------------------------------------------------|
G|--------------------16----16-17--16-17-16--14~-----------------------------|
D|---------------------------------------------------------------------------|
A|---------------------------------------------------------------------------|
E|---------------------------------------------------------------------------|#/25t2##/25t1#
    +  +  +  o  o  o  +  +  +  o   o  +  +  +  o      

#26t1##26t2#E|--------17-17-17--------17-17-17--------17-17-17-------17-17-17---|
B|---x--x------------x--x------------x--x-----------x--x------------|
G|--14-14-----------14-14-----------14-14----------14-14------------|
D|------------------------------------------------------------------|
A|------------------------------------------------------------------|
E|------------------------------------------------------------------|#/26t2##/26t1#
    +  +  o  o  o   +  +  o  o  o  +  +   o  o  o   +  +   o  o  o       

#27t1##27t2#E|-------------15-15-15-------15---------------------------------------------|
B|----------------------17-17-------------17-17-17---------------------------|
G|---17-17-17--------------------16-16-16----------16-14~--------------------|
D|---------------------------------------------------------------------------|
A|---------------------------------------------------------------------------|
E|---------------------------------------------------------------------------|#/27t2##/27t1#
     +  +  +   o  o  o  +  +  +  o  o  o  +  +  +  o   o
                                                                                                 
************************************

| x   Dead note
| h   Hammer-on
| p   Pull-off
| r   Release
| t   Tapping
| b   Bend
| /   Slide up
| \   Slide down
| ~   Vibrato
| + Wah Pedal Open
| o Wah Pedal Close
************************************

Tab by: ojabbar@insightbb.com
Composição: Josh KlinghofferColaboração e revisão: omar jabbar