busca

Goodbye Hooray

Red Hot Chili Peppers

Tom: C
Intro: A5 G5 A5 G5 A5 G5 A5 Bb5 A5 G5 A5 G5 A5 G5 A5 G5 A5

(Esta música pode ser acompanhada com o Riff ou com os Acordes)

E|----------------------------------------------------------------|
B|----------------------------------------------------------------|
G|----------------------------------------------------------------|
D|----------------------------------------------------------------|
A|-----5-7-5-------------3-5-7-5-------5-7-5----------------------|
E|-5-8-------8-5-3-5-3-5---------6-5-8-------8-5-3-5-3-5-3-5-3-5--|

( A5 G5 A5 G5 A5 G5 A5 Bb5 A5 G5 A5 G5 A5 G5 A5 G5 A5)

Junior pimp at the old café
Got to chase those girls around
Westbound, drunk with lots to say
But he never makes a sound

Hustlers get what they deserve
But it's always half the gate
Good things come to those who wait
Like an expiration date

Am
See you around I'll see you around
G
I'll play all night

Can't get uptight
Em                             Dm
I'll lead all your mind games astray
Am
See you around I'll see you around
G
I'll play all night

Can't get uptight
Em                           Dm
See you, so long, goodbye, hooray

E|----------------------------------------------------------------|
B|----------------------------------------------------------------|
G|----------------------------------------------------------------|
D|----------------------------------------------------------------|
A|-----5-7-5-------------3-5-7-5-------5-7-5----------------------|
E|-5-8-------8-5-3-5-3-5---------6-5-8-------8-5-3-5-3-5-3-5-3-5--|

( A5 G5 A5 G5 A5 G5 A5 Bb5 A5 G5 A5 G5 A5 G5 A5 G5 A5)

Curb your tongue oh scallywag
Because you've got no flag to wave
Save your breath for the black and white
Every dog will have his day

Am
See you around I'll see you around
G
I'll play all night

Can't get uptight
Em                             Dm
I'll lead all your mind games astray
Am
See you around I'll see you around
G
I'll play all night

Can't get uptight
Em                           Dm
See you, so long, goodbye, hooray
G
See you around I'll see you around

( A5 G5 A5 G5 A5 G5 A5 Bb5 A5 G5 A5 G5 A5 G5 A5 G5 A5) 2 Vezes

( Bm7 C#m7  Bm7  C#m7)

Am
See you around I'll see you around
G
I'll play all night

Can't get uptight
Em                             Dm
I'll lead all your mind games astray
Am
See you around I'll see you around
G
I'll play all night

Can't get uptight
Em                           Dm
See you, so long, goodbye, hooray
Am
See you around I'll see you around
G
I'll see you around I'll see you around
Em                            Dm
I'll see you around goodbye, hooray
G
I'll see you around I'll see you around

( A5 G5 A5 G5 A5 G5 A5 Bb5 A5 G5 A5 G5 A5 G5 A5 G5 A5) 2 Vezes

Clipes

Cifra Club Pro

Aproveite o Cifra Club com benefícios exclusivos e sem anúncios
7 dias grátis
Cifra Club Pro
Aproveite o Cifra Club com benefícios exclusivos e sem anúncios
7 dias grátis