busca

Green Heaven

Red Hot Chili Peppers

Tom: C
-==Versão 1:==-

Tuning: Standard

Intro
e|---12-12-12-12-12-12-12-12-13-13-13-13--xxxxxxxx---------------------------------------
b|---17-17-17-17-17-17-17-17-17-17-17-17--xxxxxxxx---------------------------------------
G|-9--------------------------------------xxxxxxxx------0-2-0-4b-4b-4b-4b-4bp2---2-2-2---
D|-9--------------------------------------xxxxxxxx-2---2----------------------5--5-5-5---
A|-7--------------------------------------xxxxxxxx-2-------------------------------------
E|----------------------------------------xxxxxxxx-0-------------------------------------

Verse
e|---------------------------
b|-8-8-8-8-8-----------------
G|-7-7-7-7-7-----------------
D|-6-6-6-6-6---6--6--5--5--2-
A|-7-7-7-7-7------6-----5--2-
E|----------------4-----3--0-

Chorus
e|--------
b|--------
G|--------
D|--3-5--3
A|------5-
E|-3b-----

that pretty little ditty before the second verse
e|-2-2-2-2--5-5-5-5--2-2-2-2--7-7-7-7
b|-2-2-2-2--2-2-2-2--2-2-2-2--2-2-2-2
G|-----------------------------------
D|-----------------------------------
A|-----------------------------------
E|-----------------------------------

Right before the 2nd verse
e|----------------------------------------------------------------
b|----------------------------------------------------------------
G|----------------------------------------------------------------
D|-7-7-7/8-7-7-7/8-7-7-7/8-7-7-7/8-7-7-7/8-10-10-10-10-12-12-12-12
A|-7-7-7/8-7-7-7/8-7-7-7/8-5-5-5/8-5-5-5/8-10-10-10-10-12-12-12-12
E|-5-5-5/6-5-5-5/6-5-5-5/6-5-5-5/6-5-5-5/6-8--8--8--8--10-10-10-10
Solo
e|---------17b17b17b17b17b17b17b17b17b---------------------------------------------------------------
b|-------------------------------------12-------------------------------------------10b--------------
G|-5/15-12--------------------------------14-12-------12--12--14-12-----12--12--12-----12-9----------
D|----------------------------------------------14-12---12--12-----14-12--14--14--14-------14-9b-----
A|----------------------------------------------------------------------------------------------12-10
E|---------------------------------------------------------------------------------------------------

e|--------------------------12-10-7-------------------------------------------------------------17b17b17b17b17b17b
b|----------------------10-8-------10b-10-8---------------------10b-------------12--------------------------------
G|------------14-12-------------------------9-7---------------12---12p10------12--14b------12---------------------
D|-----7b----------14-12-----------------------9-7----------14----------12b-14-------12--14--14-------------------
A|-7-9---9-7--------------------------------------10b-------------------------------------------------------------
E|----------------------------------------------------7-5-3b------------------------------------------------------

theres no f**king way my solo is perfect but its a start for anyone who wants to correct it

Lyrics------------------------------------------------------------
About this planet, there is something I know
There's a very big difference between above and below
A friend, foe, or bro, leave your body on the floor
Let your spirit fly away like the soul of a crow 

Here above land, man has laid his plan
And yes, it does include the Ku Klux Klan
We got a government so twisted and bent
Bombs, tanks and guns is how our money is spent
We got V.D., heroin, greed and prostitution
Tension, aggravation, L. Ron Hubbard solution
Not to mention hard-core chemical pollution
If you think a different way, you're in a mental institution
And that's a heart felt shame
'Cos everyone's crazy, everyone's the same
So, why should only Larry, Curly and Moe be to blame?

Time now to take you to a different place
Where peace lovin' whales flow through liquid outer space
A groovin' and a glidin' as graceful as lace
A never losing touch with the ocean's embrace
Diviner than the dolphin, that there is none
Cause dolphins just-a like to have a lot of fun
No one tells 'em how their life is run
And no one points at them with a gun
They have a lot of love for every living creature
The smile of a dolphin is a built-in feature
They be movin' in schools but everyone's a teacher
Someday mister dolphin, I know I'm goin' to meet you

Back to the land of the police man
Where he does whatever he says he can
Including hating you because you're a Jew
Or beating black ass, that's nothing new
Trigger happy cops, they just like to brawl
They use guns, clubs, gas, but that's not all
They got puke, ridden prisons and sex sick jails
*** the poor, if you're rich you pay the bail
So support your police, support your local wars
That's the way to open economic doors
Why do we do it? 'Cause the president's a whore
We assume the position to sell the ammunition
What the ***? It's the american tradition
Along with going fishin', apple pies in the kitchen
Isn't it bitchin' seeing dead men in ditches? 
-----------------------------------------------------------------
have fun

-==Versão 2:==-

Tuning: (E,A,D,G,B,e)


Intro: w/Talk-Box

On the album version from their first 
record...they play this, before the
verse starts...and they also played
it like this live.

     G5         G5             G5         G5   G5 A5 G5   
e-|-----------------------------------------------------|-
B-|--------x-x--------x-x-x-x---------------------------|-
G-|--------x-x--------x-x-x-x---------------------------|-
D-|--5--5--x-x--5--5--x-x-x-x--5---5-5----5----5--7--5--|-
A-|--x--x--x-x--x--x--x-x-x-x--x---x-x----x----x--x--x--|-
E-|--3--3-------3--3-----------3---3-3----3----3--5--3--|-

Then go to the verse.

Verse:

     E  E7#9
e-|------------------------------|-----------------------------|-
B-|-----8-8-8-8--x-x-x-----x-----|-----8-8-8-8--x-x------------|-
G-|-----7-7-7-7--x-x-x-----x-----|-----7-7-7-7--x-x------------|-
D-|-----6-6-6-6--x-x-x--6--x--5--|-----6-6-6-6--x-x--6----5----|-
A-|-----7-7-7-7--x-x-x-----x-----|-----7-7-7-7--x-x------------|-
E-|--0------------------4-----3--|--0------------------4----3--|-
           Demo Version                       Live

Chorus:

e-|----------------|----------------|----------------|----------------|-
B-|----------------|----------------|----------------|----------------|-
G-|----------------|----------------|----------------|----------------|-
D-|-----5p3---3----|-----5p3---3----|-----5p3---3----|-----5p3---3----|-
A-|---------5------|---------5------|---------5------|---------5------|-
E-|--3-------------|--3-------------|--3-------------|--3-------------|-


e-|----------------|------------------------|----------------|----------------|-
B-|----------------|----------------5-5--x--|----------------|----------------|-
G-|----------------|----------------5-5--x--|----------------|----------------|-
D-|-----5p3---3----|-----5p3---3------------|-----5p3---3----|-----5p3---3----|-
A-|---------5------|---------5--------------|---------5------|---------5------|-
E-|--3-------------|--3---------------------|--3-------------|--3-------------|-

Verse 2: Mute strings

e-|-----------------------|-----------------------|-
B-|--x-x-x-x-x-x-x-x-x-x--|--x-x-x-x-x-x-x-x-x-x--|-
G-|--x-x-x-x-x-x-x-x-x-x--|--x-x-x-x-x-x-x-x-x-x--|-
D-|--x-x-x-x-x-x-x-x-x-x--|--x-x-x-x-x-x-x-x-x-x--|-
A-|--x-x-x-x-x-x-x-x-x-x--|--x-x-x-x-x-x-x-x-x-x--|-
E-|-----------------------|-----------------------|-

Interlude:

e-|------------------------------|------------------------------|-
B-|------------------------------|------------------------------|-
G-|------------------------------|------------------------------|-
D-|------------------------------|------------------------------|-
A-|------------------------------|------------------------------|-
E-|--5--5--5-5--6--5--5--5-5--6--|--5--5--5-5--6--5--5--5-5--6--|-

                                              Pinch Harmonic
e-|------------------------------|---------------------------|-
B-|------------------------------|---------------------------|-
G-|------------------------------|---------------------------|-
D-|------------------------------|---------------<*5*>~~~~~--|-
A-|------------------------------|---------------------------|-
E-|--5--5--5-5--6--5--5--5-5--6--|--5--5--5-5-0--------------|-


Outro: w/ Talk-Box

Use E-Blues Scale or E-Minor 
Pentatonic Scale...I think.

Clipes