busca

Havana Affair

Red Hot Chili Peppers

Tom: D
Introdução

     Bm                   D            A
E|--------------------|-----------2------------0---|
B|-----------3--------|--------3------------2------|
G|*-------4-----4-----|-----2------------2--------*|
D|*----4-----------4--|--0------------------------*|
A|--2-----------------|---------------0------------|
E|--------------------|----------------------------|


Bm             G
PT-boat on the way to havanna.... 

|--2-----------3------------|
|--3-----------3------------|
|--4-----------4------------|
|--4-----------5------------|
|--2-----------5------------|
|--2-----------3------------|

   A
...I used to make a living, man

|-0---------------------------|
|-2---------------------------|
|-2---------------------------|
|-2---------------------------|
|-0---------------------------|
|-0---------------------------|

   F#
   Pickin' the banana.

|-2-2-3--2-----------|
|-2-2-3--2-----------|
|-3-3-4--3-----------|
|-4-4-5--4-----------|
|-4-4-5--4-----------|
|-2-2-3--2-----------|



Bm                      G
Now i'm a guide for the CIA

|----------------------|----------------|
|----------3-----------|----------3-----|
|-------4-----4--------|-------4-----4--|
|----4-----------------|----5-----------|
|-2--------------------|----------------|
|----------------------|-3--------------|

  A                F#
  Hooray  for  the USA!

|----------0----|---------------|
|-------------2-|----------2----|
|-------2-------|-------3-----3-|
|----2----------|----4----------|
|-0-------------|---------------|
|---------------|-2-------------|

G                     F#
Baby, baby make me a loco

|-------------------|---------------|
|----------3--------|----------2----|
|-------4-----4-----|-------3-----3-|
|----5--------------|----4----------|
|-------------------|---------------|
|-3-----------------|-2-------------|

G                     F#
Baby, baby make me a mambo

|-------------------|---------------|
|----------3--------|----------2----|
|-------4-----4-----|-------3-----3-|
|----5--------------|----4----------|
|-------------------|---------------|
|-3-----------------|-2-------------|

Bm                  G           F#
oooooooo            oooooo      oooooooo

|------------------|--------------------------|
|----------3-------|--------------------------|
|-------4-----4----|----------4-------------3-|
|----4-----------4-|-------5------------4-----|
|-2----------------|----5-----------4---------|
|------------------|-3----------2-------------|


Bm                  G           F#
oooooooo            oooooo      oooooooo

|------------------|------------------------2-|
|----------3-------|------------------------2-|
|-------4-----4----|----------4-------------3-|
|----4-----------4-|-------5------------4-----|
|-2----------------|----5-----------4---------|
|------------------|-3----------2-------------|


Bm               G
Sent to spy on a Cuban talent Show

A            F#-G-F#
First stop - Havana au go-go

Bm
I used to make a living, man

G
Pickin' the banana

A          F#
Hooray for Havana!

G     F#
baby, baby.......... etc


Bm     G      F#
oooooo oooooo oooooo etc




|---------------------------|
|---------------------------|
|------------------7----9---| toque x4
|-7/9--9-9--9-9----7----9---|
|-7/9--9-9--9-9----5----7---|
|-5/7--7-7--7-7-------------|


Na ultima parte o John toca os acordes desse jeito


   Bm      G      A       F#

|--10-----10------12------09--------|
|--12-----12------14------11--------|
|--11-----12------14------11--------| 
|-----------------------------------|
|-----------------------------------|
|-----------------------------------|



Termina com um acorde de Bm

|-2---|
|-3---|
|-4---|
|-4---|
|-2---|
|-2---|

Clipes

Cifra Club Pro

Aproveite o Cifra Club com benefícios exclusivos e sem anúncios
7 dias grátis
Cifra Club Pro
Aproveite o Cifra Club com benefícios exclusivos e sem anúncios
7 dias grátis