busca

Hump de Bump

Red Hot Chili Peppers

Tom: C
HUMP DE BUMP
Red Hot Chili Peppers
Album: Stadium Arcadium

GUITARRA

Intro:
e|-10-10-10-10-10-10-|
B|-10-10-10-10-10-10-|
G|-10-10-10-10-10-10-|
D|-X--X--X--X--X--X--|
A|-10-10-10-10-10-10-|
E|-------------------|

Parte 1                  Parte 2                   Parte 3
e|---------------------| |-----------------------| |---------------------------------|
B|---------------------| |-----------------------| |-X-X-7-X-X-6-X-X-7-X-X-6-X-X-6-7-|
G|-7-5--5--7-5--5--5-7-| |-7-5--5--5-4-5-4-5-4-5-| |-X-X-5-X-X-5-X-X-5-X-X-5-X-X-5-5-|
D|---------------------| |-----------------------| |---------------------------------|
A|---------------------| |-----------------------| |---------------------------------|
E|---------------------| |-----------------------| |---------------------------------|

Parte 4
|-----------------8-8-8-8-8-8-8-8-|
|-X-X-7-X-X-7-X-X-7-7-7-7-7-7-7-7-|
|-X-X-5-X-X-5-X-X-7-7-7-7-7-7-7-7-|
|---------------------------------|
|---------------------------------|
|---------------------------------|

Refrão                                                Parte 5
e|-5--5-X-X-5-5-5-5---6--6-X-X-6-6-6-6---5-5---3-3--| |-------------------------|
B|-6--6-X-X-6-6-6-6---9--9-X-X-9-9-9-9---5-5---3-3--| |-----------------------3-|
G|-7--7-X-X-7-7-7-7---7--7-X-X-7-7-7-7---6-6---4-4--| |---------------------3---|
D|-7--7-X-X-7-7-7-7---6--6-X-X-6-6-6-6---5-5---3-3--| |--------3--------3^5-----|
A|-5--5-X-X-5-5-5-5---8--8-X-X-8-8-8-8---7-7---5-5--| |-1--3^5---3--3^5---------|
E|--------------------6--6-X-X-6-6-6-6---5-5---3-3--| |-------------------------|

Parte 6
|------------|
|------------|
|------------|
|--------3---|
|-1--3^5---3-|
|------------| 

Parte 7
|--------------------|
|-------------6^8-6~-|
|-7-5--5--7-5--------|
|--------------------|
|--------------------|
|--------------------|
_______________________________________

SEQUÊNCIA DAS PARTES NA MÚSICA:

Intro
Parte 1 (11x)
Parte 2
Parte 3 (7x)
Parte 4
Refrão
Parte 5
Refrão
Parte 6
Parte 1 (7x)
Parte 7
Parte 1 (3x)
Parte 2
Parte 3 (7x)
Parte 4
Refrão
Parte 5
Refrão
Parte 6
(Parte só com a percussão)
Parte 3 (7x)
Parte 4
Refrão  \ (3x)
Parte 5 /
Refrão
Parte 6
(Aí no final, na última nota que o baixo toca, a guitarra toca Dm)

heitor isoda
marcos kiyoto

Correção por: Adriano Lara

Clipes