busca

If You Have To Ask

Red Hot Chili Peppers

Tom: C
Intro and verse :

E|-x-x-x-x-x-x-x-x-x-x-x-x-x-
B|-6-x-x-6-x-x-6-x-x-6-x-x-6-
G|-5-x-x-5-x-x-5-x-x-5-x-x-5-  X4
D|---------------------------
A|---------------------------
E|---------------------------

E|-7-7-
B|-6-6-
G|-5-5-
D|-----
A|-----
E|-----


Chorus :

E|------------------------------------------
B|-------10/13------------------------------
G|--------------8/12------------------------
D|-8-10----------------8-10-----8---8---8---
A|------------------------------------------
E|------------------------------------------



Break :

E|-----------------------
B|-10--9--8--5--6--3--6--
G|-10--9--8--3--7--1--5--
D|-9---8--7--5--5--3--4--
A|-10--9--8--3--6--1--5--
E|-----------------------

Solo (não sei se está certo, mas é mais ou menos assim):
E|---------------------------------------------------------------
B|---------------------------------------------------------------
G|-13p12p10-12-12^--------------13p12p10-----12/14-12------------
D|----------------------------------------12---------------------
A|---------------------------------------------------------------
E|---------------------------------------------------------------
 
E|---------------------------------------------------------------
B|-13p12p10-------10---10---10---10------------------------------
G|----------12^-----12^--12^--12^--12^---------------------------
D|---------------------------------------------------------------
A|-------------------------------------------11p10p8-------------
E|---------------------------------------------------10-8(/0)----

E|--------------------------------------------------------------- 
B|-------13-15---------------------------------------13-15-13----
G|--12^---------12^--12--12-14-12-10-12-10-12-12/14-14------------
D|--------------------------------------------------------------- 
A|--------------------------------------------------------------- 
E|---------------------------------------------------------------

E|---------------------------------------------------------------
B|---------------------------------------------------------------
G|-14-12^-12-10-12-10-12-12^*-----12p10--10----------------------
D|-------------------------------------12--12-10-----------------
A|-----------------------------------------------12-10--10p12----
E|----------------------------------------------------12---------
  *=varias vezes com a corda erguida e volta ela devagar, mas tocando varias vezes ainda

E|--------------------------     ---------------------------
B|--------------------------     -13^-13--------------------
G|--------------------------(4x) --------12p14p12-10-12^----
D|----------10-10-10-12-12--     ---------------------------
A|-12-12-12-----------------     ---------------------------
E|--------------------------     ---------------------------

E|---------------------------------
B|---------------------------------
G|--10-----------------------------
D|-----12-11-10--------------------
A|--------------12-11-10-9---------
E|---------------------------------

Outro :

The same as the intro and finish with :

!------------------------
!------------------------
!-5^7--5-----------------
!---------75-3-----------
!---------------5--3^5---
!------------------------

Clipes

Cifra Club Pro

Aproveite o Cifra Club com benefícios exclusivos e sem anúncios
7 dias grátis
Cifra Club Pro
Aproveite o Cifra Club com benefícios exclusivos e sem anúncios
7 dias grátis