Tom: G
Intro/Verse:

And if i had a clue i`d know exactly what to do.

If I Was the wiser of the two.

And if i saw it all so clear i`d write it down and bend your ear, if i were the clearer of the two.


#1t1##1t2#e|-----------------------------------------------------------------|
B|--141210--7-9-9/10-----------------------------------------------|
G|-----------------------------------------------------------------|
D|-----------------------------------------------------------------|
A|-----------------------------------------------------------------|
E|-----------------------------------------------------------------|#/1t2##/1t1#

We could take a walk into the canyons of 5th avenue, sing and dance just to name a few.

#2t1##2t2#e|-----------------------------------------------------------------|
B|--/9-10----------------------------------------------------------|
G|-----------------------------------------------------------------|
D|-----------------------------------------------------------------|
A|-----------------------------------------------------------------|
E|-----------------------------------------------------------------|#/2t2##/2t1#

All i`d do
All i`d do

#3t1##3t2#e|-----------------------------------------------------------------|
B|--/15-12-12/1312-10---/17-15-12-12/1312-10-----------------------|
G|-----------------------------------------------------------------|
D|-----------------------------------------------------------------|
A|-----------------------------------------------------------------|
E|-----------------------------------------------------------------|#/3t2##/3t1#

And if i herd the angels sing i`d sing it back to you and bring the sound of heaven 
just for you.

#4t1##4t2#e|-----------------------------------------------------------------|
B|--141210--7-9-9/10/12/10-----------------------------------------|
G|-----------------------------------------------------------------|
D|-----------------------------------------------------------------|
A|-----------------------------------------------------------------|
E|-----------------------------------------------------------------|#/4t2##/4t1#

And if i saw the sun fall down i`d pick it up and make a crown, one that was a perfect fit for you.

#5t1##5t2#e|-----------------------------------------------------------------|
B|--/17--15-14-1514-10-11/12-10------------------------------------|
G|-----------------------------------------------------------------|
D|-----------------------------------------------------------------|
A|-----------------------------------------------------------------|
E|-----------------------------------------------------------------|#/5t2##/5t1#

We could take a walk in to the apple orchard by the school, we could make a little residue.

#6t1##6t2#e|---5/7-9------5/7--5-------------------------------------------|
B|---------------------------------------------------------------|
G|---------------------------------------------------------------|
D|---------------------------------------------------------------|
A|---------------------------------------------------------------|
E|---------------------------------------------------------------|#/6t2##/6t1#


We could find a place to stay a seceret little hide away , spend a little time inside of you


#7t1##7t2#e|---5/7-9----5/7--5---------------------------------------------|
B|---------------------------------------------------------------|
G|---------------------------------------------------------------|
D|---------------------------------------------------------------|
A|---------------------------------------------------------------|
E|---------------------------------------------------------------|#/7t2##/7t1#

All i`d do
All i`d do
All eyes
All eyes
All eyes on you.

#8t1##8t2#e|-----------------------------------------------------------------|
B|--/13-12-12/1312-10-----/17-15-12-12/1312-10---------------------|
G|-----------------------------------------------------------------|
D|-----------------------------------------------------------------|
A|-----------------------------------------------------------------|
E|-----------------------------------------------------------------|#/8t2##/8t1#

All eyes
All eyes
All eyes on you.
All i`d do
All i`d do
All i`d do
All i`d do

#9t1##9t2#e|---------------------------------------------------------------|
B|-/13--12--10-9--/13--12--10--/10/13----13/15-10----------------|
G|---------------------------------------------------------------|
D|---------------------------------------------------------------|
A|---------------------------------------------------------------|
E|---------------------------------------------------------------|#/9t2##/9t1#
Composição: Colaboração e revisão: Thiago Oliveira