I'll Be Your Domino

Red Hot Chili Peppers

Tom: G
Guitarra 2 basicamente improvisa em Fá menor

#1t1#0:01
#1t2#e|---15-15-15----------------------------------------------------------------|
B|---14-14-14----------------------------------------------------------------|
G|---15-15-15-and so on...---------------------------------------------------|
D|---------------------------------------------------------------------------|
A|---------------------------------------------------------------------------|
E|---------------------------------------------------------------------------|#/1t2##/1t1#

Then...

#2t1#Intro
#2t2#e|---------------------------------------------------------------------------|
B|---------------------------------------------------------------------------|
G|---------------------------------------------------------------------------|
D|-------------------------------------------------------------13------------|
A|--15-----13-15-------15--------13-15------13-15-----13-15-13----13-15------|
E|---------------------------------------------------------------------------|#/2t2##/2t1#

#3t1#Verse 1 - 0:19
#3t2#e|---------------------------------------------------------------------------|
B|---------------------------------------------------------------------------|
G|---------------------------------------------------------------------------|
D|---------------------------------------------------------------------------| Repeat as required
A|--15-----13-15-------15--------13-15------13-15-----13-15-13-15------------|
E|---------------------------------------------------------------------------|#/3t2##/3t1#

Bridge - 0:36

#4t1##4t2#e|---------------------------------------------------------------------------|
B|--------16--------------16-----------16----------18--18-16-----------------|
G|--14/15------14-14---15------14-14/15------14-14---------------------------| X3
D|---------------------------------------------------------------------------|
A|---------------------------------------------------------------------------|
E|---------------------------------------------------------------------------|#/4t2##/4t1#

#5t1##5t2#e|------------------------------------------------------15-15-15-15-15-------|
B|--------16--------------16------------16---------16---16-16-16-16-16-------|
G|--14/15------14-14---15------14-14/15------14/15------17-17-17-17-17-------|
D|---------------------------------------------------------------------------|
A|---------------------------------------------------------------------------|
E|---------------------------------------------------------------------------|#/5t2##/5t1#


Verse 2 - 0:55
Guitar 2
#6t1##6t2#e|---------------------------------------------------------------------------|
B|---------------------------------------------------------------------------|
G|---------------------------------------------------------------------------|
D|---------------------------------------------------------------------------| Repeat as required
A|--15-----13-15-------15--------13-15------13-15-----13-15-13-15------------|
E|---------------------------------------------------------------------------|#/6t2##/6t1#

#7t1#Guitar 1
#7t2#e|---------------------------------------------------------------------------|
B|---------------------------------------------------------------------------|
G|--15/17--17--15--17-15-----------------------------------------------------|
D|-----------------------15-13--15-15-15--13--15b----------------------------|  X3
A|------------------------------------------------15-------------------------|
E|---------------------------------------------------------------------------|#/7t2##/7t1#

#8t1##8t2#e|---------------------------------------------------------------------------|
B|----------------------------------------16--13-----------------------------|
G|--15/17--17--15--17-15------------13/15------------------------------------|
D|-----------------------15-13--15-----------------15p13---------------------|  
A|--------------------------------------------------------15~----------------|
E|---------------------------------------------------------------------------|#/8t2##/8t1#

#9t1#Bridge - 1:12
#9t2#e|---------------------------------------------------------------------------|
B|--------16--------------16-----------16----------18--18-16-----------------|
G|--14/15------14-14---15------14-14/15------14-14---------------------------| X3
D|---------------------------------------------------------------------------|
A|---------------------------------------------------------------------------|
E|---------------------------------------------------------------------------|#/9t2##/9t1#

#10t1##10t2#e|------------------------------------------------------15-15-15-15-15-------|
B|--------16--------------16------------16---------16---16-16-16-16-16-------|
G|--14/15------14-14---15------14-14/15------14/15------17-17-17-17-17-------|
D|---------------------------------------------------------------------------|
A|---------------------------------------------------------------------------|
E|---------------------------------------------------------------------------|#/10t2##/10t1#

Chorus - 1:30

#11t1##11t2#e|---------------------------------------------------------------------------|
B|--10-10-x-x-10-x-12-x-12-12-x-x-13-13-x-x-12-12-x-10-10--------------------|
G|--10-10-x-x-10-x-12-x-12-12-x-x-13-13-x-x-12-12-x-10-10--------------------|
D|--10-10-x-x-10-x-12-x-12-12-x-x-13-13-x-x-12-12-x-10-10--------------------|
A|---------------------------------------------------------------------------|
E|---------------------------------------------------------------------------|#/11t2##/11t1#

Post Chorus - 1:48

#12t1##12t2#e|---------------------------------------------------------------------------|
B|---------------------------------------------------------------------------|
G|--------17-----------------------------------------------------------------|
D|--15/17-------17-15-13--13h15p13----13-15--13-15-15-13h15p13---------------|
A|---------------------------------15--------------------------15------------|
E|---------------------------------------------------------------------------|#/12t2##/12t1#

#13t1##13t2#e|---------------------------------------------------------------------------|
B|---------------------------------------------------------------------------|
G|---------------------------------------------------------------------------|
D|--13--15-15-15--15-13---13-15--13---15--15b--15p13~------------------------|
A|---------------------------------------------------------------------------|
E|---------------------------------------------------------------------------|#/13t2##/13t1#

#14t1#Verse 3 - 1:57
#14t2#e|---------------------------------------------------------------------------|
B|---------------------------------------------------------------------------|
G|---------------------------------------------------------------------------|
D|---------------------------------------------------------------------------| Repeat as required
A|--15-----13-15-------15--------13-15------13-15-----13-15-13-15------------|
E|---------------------------------------------------------------------------|#/14t2##/14t1#


#15t1#Bridge - 2:15
#15t2#e|---------------------------------------------------------------------------|
B|--------16--------------16-----------16----------18--18-16-----------------|
G|--14/15------14-14---15------14-14/15------14-14---------------------------| X3
D|---------------------------------------------------------------------------|
A|---------------------------------------------------------------------------|
E|---------------------------------------------------------------------------|#/15t2##/15t1#

#16t1##16t2#e|------------------------------------------------------15-15-15-15-15-------|
B|--------16--------------16------------16---------16---16-16-16-16-16-------|
G|--14/15------14-14---15------14-14/15------14/15------17-17-17-17-17-------|
D|---------------------------------------------------------------------------|
A|---------------------------------------------------------------------------|
E|---------------------------------------------------------------------------|#/16t2##/16t1#

Chorus - 2:33

#17t1##17t2#e|---------------------------------------------------------------------------|
B|--10-10-x-x-10-x-12-x-12-12-x-x-13-13-x-x-12-12-x-10-10--------------------|
G|--10-10-x-x-10-x-12-x-12-12-x-x-13-13-x-x-12-12-x-10-10--------------------|
D|--10-10-x-x-10-x-12-x-12-12-x-x-13-13-x-x-12-12-x-10-10--------------------|
A|---------------------------------------------------------------------------|
E|---------------------------------------------------------------------------|#/17t2##/17t1#

Guitar Solo - 2:50

#18t1#Guitar 1
#18t2#e|---------------------------------------------------------------------------|
B|---------------------------------------------------------------------------|
G|---------------------------------------------------------------------------|
D|--8h10p8h10p8h10p8--------12b---10---15b17r15-13h15------------------------|
A|---------------------------------------------------------------------------|
E|---------------------------------------------------------------------------|#/18t2##/18t1#

#19t1##19t2#e|---------------------------------------------------------------------------|
B|---------------------------------------------------------------------------|
G|--------15-17--17-17-17-17-17-17\10--------17--19-20--20b--17~-------------|
D|--15/17--------------------------------------------------------------------|
A|---------------------------------------------------------------------------|
E|---------------------------------------------------------------------------|#/19t2##/19t1#

#20t1##20t2#e|---------------------------------------------------------------------------|
B|---------------------------------------------------------------------------|
G|--------------------17--------17--------17---------------------------------|
D|--15p13-15----15/17-----15/17-----15/17------------------------------------|
A|---------------------------------------------------------------------------|
E|---------------------------------------------------------------------------|#/20t2##/20t1#

#21t1#Guitar 2
#21t2#e|---------------------------------------------------------------------------|
B|--10-10-x-x-10-x-10-x-10-10-x-x-10-10-x-x-10-10-x-10-10--------------------|
G|--10-10-x-x-10-x-10-x-10-10-x-x-10-10-x-x-10-10-x-10-10--------------------| repeat as necessary
D|--10-10-x-x-10-x-10-x-10-10-x-x-10-10-x-x-10-10-x-10-10--------------------|
A|---------------------------------------------------------------------------|
E|---------------------------------------------------------------------------|#/21t2##/21t1#

#22t1#Bridge - 3:17
#22t2#e|---------------------------------------------------------------------------|
B|--------16--------------16-----------16----------18--18-16-----------------|
G|--14/15------14-14---15------14-14/15------14-14---------------------------| X3
D|---------------------------------------------------------------------------|
A|---------------------------------------------------------------------------|
E|---------------------------------------------------------------------------|#/22t2##/22t1#

#23t1##23t2#e|------------------------------------------------------15-15-15-15-15-------|
B|--------16--------------16------------16---------16---16-16-16-16-16-------|
G|--14/15------14-14---15------14-14/15------14/15------17-17-17-17-17-------|
D|---------------------------------------------------------------------------|
A|---------------------------------------------------------------------------|
E|---------------------------------------------------------------------------|#/23t2##/23t1#

Chorus - 3:34

#24t1##24t2#e|---------------------------------------------------------------------------|
B|--10-10-x-x-10-x-12-x-12-12-x-x-13-13-x-x-12-12-x-10-10--------------------|
G|--10-10-x-x-10-x-12-x-12-12-x-x-13-13-x-x-12-12-x-10-10--------------------|
D|--10-10-x-x-10-x-12-x-12-12-x-x-13-13-x-x-12-12-x-10-10--------------------|
A|---------------------------------------------------------------------------|
E|---------------------------------------------------------------------------|#/24t2##/24t1#
Composição: Anthony Kedis; Chad Smith; Flea; John FruscianteColaboração e revisão: Gabriel Martins