| Wont somebody testify..... / Johnny!..... / Jonny JOHNNY!!!! | Outro" /> | Wont somebody testify..... / Johnny!..... / Jonny JOHNNY!!!! | Outro">
busca

Johnny Kick A Hole In The Sky

Red Hot Chili Peppers

Tom: C
Intro

E||--14-14-14-14-14-14-14-14-14-14-14-14-14-14-14-14-|
B||--15-15-15-15-15-15-15-15-15-15-15-15-15-15-15-15-|
G||--12-12-12-12-12-12-12-12-12-12-12-12-12-12-12-12-|
D||--14-14-14-14-14-14-14-14-14-14-14-14-14-14-14-14-|
A||--------------------------------------------------|
E||--------------------------------------------------|


|--14-14-14-14-14-14-14-14-14-14-14-14-14-14-14-14-|
|--15-15-15-15-15-15-15-15-15-15-15-15-15-15-15-15-|
|--12-12-12-12-12-12-12-12-12-12-12-12-12-12-12-12-|
|--14-14-14-14-14-14-14-14-14-14-14-14-14-14-14-14-|
|--------------------------------------------------|
|--------------------------------------------------|


|--12b---------------------------|----------------------------------|
|--12b---------------------------|----------------------------------|
|--12b---------------------------|----------------------------------|
|--------2-x-x-2-x-x-x-2-x-x-x-x-|--2-x-x-x-x-x-x-2-x-x-x-2-x-x-x-x-|
|--------------------------------|----------------------------------|
|--------------------------------|----------------------------------|


Verse 
|---15-15-15-15-14-14-14-14-14-14-14-14-14-14-14-14-|
|---15-15-15-15-15-15-15-15-15-15-15-15-15-15-15-15-|
|*--12-12-12-12-12-12-12-12-12-12-12-12-12-12-12-12-|
|*--14-14-14-14-14-14-14-14-14-14-14-14-14-14-14-14-|
|---------------------------------------------------|
|---------------------------------------------------|


|--14-14-14-14-14-14-14-14-14-14-14-14-14-14-14-14-|
|--15-15-15-15-15-15-15-15-15-15-15-15-15-15-15-15-|
|--12-12-12-12-12-12-12-12-12-12-12-12-12-12-12-12-|
|--14-14-14-14-14-14-14-14-14-14-14-14-14-14-14-14-|
|--------------------------------------------------|
|--------------------------------------------------|


2x
|--12b---------------------------|-----------------------------------||
|--12b---------------------------|-----------------------------------||
|--12b---------------------------|----------------------------------*||
|--------2-x-x-2-x-x-x-2-x-x-x-x-|--2-x-x-x-x-x-x-2-x-x-x-2-x-x-x-x-*||
|--------------------------------|-----------------------------------||
|--------------------------------|-----------------------------------||


Pow pow!! 
|--12-12-12-12-12-12-x-x------------|--12-12-12-12-12-12-x-x------------|
|--12-12-12-12-12-12-x-x------------|--12-12-12-12-12-12-x-x------------|
|--12-12-12-12-12-12-x-x------------|--12-12-12-12-12-12-x-x------------|
|-----------------------------------|-----------------------------------|
|------------------------5--x-7-----|------------------------5--x-7-----|
|-----------------------------------|-----------------------------------|


|--12-12-12-12-12-12-x-x------------|--12-12-12-12-12-12-x-x-----------|
|--12-12-12-12-12-12-x-x------------|--12-12-12-12-12-12-x-x-----------|
|--12-12-12-12-12-12-x-x------------|--12-12-12-12-12-12-x-x-----------|
|-----------------------------------|----------------------------------|
|------------------------5--x-7-----|------------------------5--x-7----|
|-----------------------------------|----------------------------------|


| Wont somebody testify..... 
|--------------------------|-------------------------|-----------------------|
|--------------------------|-------------------------|-----------------------|
|*-------------------5-----|-------------------5-----|-----------------------|
|*--5---5------5-----5-----|--5---5------5-----5-----|-----------------------|
|---5---5------5-----------|--5---5------5-----------|-----------------------|
|---3---3---3--3--3-----3--|--3---3---3--3--3-----3--|--5---5---3--5-5-------|


Johnny!..... 
|-------------------------||--------------------------|
|-------------------------||--------------------------|
|------------------------*||--------------------------|
|------------------------*||--7--7--7--7--7--7--7--7--|
|-------------------------||--5--5--5--5--5--5--5--5--|
|--5-5--5---3--5-5--------||--------------------------|

Jonny JOHNNY!!!! | Outro
|----------------------------------|--12-12-12-12-12-12-x-x------------| 
|----------------------------------|--12-12-12-12-12-12-x-x------------|
|----------------------------------|--12-12-12-12-12-12-x-x------------|
|--10--10--10--10--10--10--10--10--|-----------------------------------|
|--8---8---8---8---8---8---8----8--|------------------------5--x-7-----|
|----------------------------------|-----------------------------------|


|--12-12-12-12-12-12-x-x------------|--12-12-12-12-12-12-x-x------------|
|--12-12-12-12-12-12-x-x------------|--12-12-12-12-12-12-x-x------------|
|--12-12-12-12-12-12-x-x------------|--12-12-12-12-12-12-x-x------------|
|-----------------------------------|-----------------------------------|
|------------------------5--x-7-----|------------------------5--x-7-----|
|-----------------------------------|-----------------------------------|


|--12-12-12-12-12-12-x-x------------|-------------------|
|--12-12-12-12-12-12-x-x------------|-------------------|
|--12-12-12-12-12-12-x-x------------|-------------------|
|-----------------------------------|-------------------|
|------------------------5--x-7-----|-------------------|
|-----------------------------------|--0----------------|

Clipes