A
123
X02220
A9
12
X02200
B
234
X24442
C
123
X32010
D9
12
XX0230
E
123
022100
E9
123
024100
F#
234
244322
F#m
34
244222
Tom: G
Play the whole song with a Chorus pedal and some dist.

Intro:

#1t1#      F#m              A  B        F#m              C  B
#1t2#e|-|---14-14-14-----------------|---14-14-14---------------|
B|-|---14-14-14----x-x--2--4----|---14-14-14----x-x--5--4--|
G|-|---14-14-14----x-x--2--4----|---14-14-14----x-x--5--4--|
D|-|---------------x-x--2--4----|---------------x-x--5--4--|
A|-|----------------------------|--------------------------|
E|-|----------------------------|--------------------------|x 2#/1t2##/1t1#

#2t1##2t2#e|-|------------------------------------------------------|
B|-|------------------------------------------------------|
G|-|------------------------------------------------------|
D|-|------------------------------------------------------|
A|-|--5-------5-5-5-5-5-5-5-5-5-.......-------------------|
E|-|------------------------------------------------------|#/2t2##/2t1#

Verse:

#3t1##3t2#e|-|------------------------|------------------------------|
B|-|------------------------|------------------------------|
G|-|------------------------|------------------------------|
D|-|------------4-4---4--2--|------------4-4---4--2--4-----|
A|-|------------------------|------------------------------|
E|-|--0h2--2--------2-------|--0h2--2--------2-------------|#/3t2##/3t1#

#4t1#                                 D9            E9 
#4t2#e|-|----------------------|-------5--5---------7--7-----------|
B|-|----------------------|-------5--5---------7--7-----------|
G|-|----------------------|-------5--5---------7--7-----------|
D|-|-----------4-4---4-2--|-------4--4---------6--6-----------|
A|-|----------------------|--5-5--5--5--5--7-7-7--7--7--------|
E|-|--0h2--2-------2------|-----------------------------------|#/4t2##/4t1#

Chorus:

#5t1#      F#m              A  B        F#m              C  B
#5t2#e|-|---14-14-14-----------------|---14-14-14---------------|
B|-|---14-14-14----x-x--2--4----|---14-14-14----x-x--5--4--|
G|-|---14-14-14----x-x--2--4----|---14-14-14----x-x--5--4--|
D|-|---------------x-x--2--4----|---------------x-x--5--4--|
A|-|----------------------------|--------------------------|
E|-|----------------------------|--------------------------|#/5t2##/5t1#

Interlude:
     
#6t1#     A9
#6t2#e|-|--12--12--12--12--------------------|
B|-|--12--12--12--12--------------------|
G|-|--12--12--12--12--------------------|
D|-|--11--11--11--11--..........--------|
A|-|--12--12--12--12--------------------|
E|-|------------------------------------|#/6t2##/6t1#

Outro:

#7t1#     F#          E           F#          A  E
#7t2#e|-|--2---2--2-2--0--------|--2---2--2-2----------|-
B|-|--2---2--2-2--0--------|--2---2--2-2----------|-
G|-|--3---3--3-3--1--------|--3---3--3-3--2-------|-
D|-|--4---4--4-4--2--------|--4---4--4-4--2--2----|-
A|-|--4---4--4-4--2--------|--4---4--4-4--0--2----|-
E|-|--2---2--2-2--0--------|--2---2--2-2-----0----|-#/7t2##/7t1#

#8t1#                    F#
#8t2#e|-|--------------|--2--2--------|-
B|-|--------------|--2--2--------|-
G|-|--------------|--3--3--------|-
D|-|--Let-Ring----|--4--4--------|-
A|-|--------------|--4--4--------|-
E|-|--------------|--2--2--------|-#/8t2##/8t1#
Composição: Joe ShermanColaboração e revisão: higor kiedis