busca

Leverage Of Space

Red Hot Chili Peppers

Tom: G
p  - pull off
h  - hammer on
fv - a few vibrato
v  - vibrato
~  - let ring
/  - slide
rn - repeat as necessary
b  - bend

Intro
e|--------------------------------------------------------------------------------|
B|--------------------------------------------------------------------------------|
G|--12p11-9-7-9~~--12p11-9-7-9~~--12p11-9-7-12p11-9-7--12p11-9-7-9~~------7----7v-|
D|--------------------------------------------------------------------7/9---7/9---|
A|--------------------------------------------------------------------------------|
E|--------------------------------------------------------------------------------|

e|--------------------------------------------------------------------------------|
B|--------------------------------------------------------------------------------|
G|--12-11-9-7-9~~--12p11-9-7--12p11-9-7-9-----------------------------------------|
D|--------------------------------------------------------------------------------|
A|--------------------------------------------------------------------------------|
E|--------------------------------------------------------------------------------|

Verse 00:27
e|-----12--12--12--12--12----15--15--15--15--15----12--12--12--12--12-------------|
B|---12--12--12--12--12----17--17--17--17--17----12--12--12--12--12---15-13-12----|
G|-----------------------------------------------------------------------------12-|
D|--------------------------------------------------------------------------------|
A|--------------------------------------------------------------------------------|
E|--------------------------------------------------------------------------------|
X2

Shade, stay, know all 
but they communicate
try, fade, 
the leverage of space

00:46
e|--------------------------------------|
B|--------------12rn-12-----------------|
G|--9rn---12-9--12----9-X2--9rn---7-----|
D|--9-----12-9--------------9-----7-----|
A|--------------------------------------|
E|--------------------------------------|
X2

Star, jay, 
the fall dawn aim to place
with shades on, 
the leverage of...

Chorus 01:13 (volume mais baixo)
e|--12--------------12-------------12------------12-------------|
B|--12--------------12-------------12------------12-------------|
G|--12--------------12-------------12------------12-------------|
D|--14--------------12-------------10------------12-------------|
A|--------------------------------------------------------------|
E|--------------------------------------------------------------|
X2

Shade, shade, shade, 
the leverage of, the leverage of
Space, shade, shade,
the leverage of, the leverage of

Intro 01:31
e|-----------------------------------------------------------------|
B|-----------------------------------------------------------------|
G|--12p11-9-7h9v---14b--12p11-9-7-9v--12p11-9-7--12p11-9-7-9~~-----|
D|-----------------------------------------------------------------|
A|-----------------------------------------------------------------|
E|-----------------------------------------------------------------|

Verse 01:40
e|-----12--12--12--12--12----15--15--15--15--15----12--12--12--12--12-------------|
B|---12--12--12--12--12----17--17--17--17--17----12--12--12--12--12---15-13-12----|
G|-----------------------------------------------------------------------------12-|
D|--------------------------------------------------------------------------------|
A|--------------------------------------------------------------------------------|
E|--------------------------------------------------------------------------------|

Hate breaks down 
mountains that we

01:49
e|--------------------------------------|
B|-------------12rn-12------------------|
G|--9rn--12-9--12----9-X2--9rn--7-------|
D|--9----12-9---------------9---7-------|
A|--------------------------------------|
E|--------------------------------------|

make so tame 
oh, the leverage of...

Chorus 02:03 (volume mais baixo)
e|--12--------------12-------------12------------12-------------|
B|--12--------------12-------------12------------12-------------|
G|--12--------------12-------------12------------12-------------|
D|--14--------------12-------------10------------12-------------|
A|--------------------------------------------------------------|
E|--------------------------------------------------------------|
X2

Shade, shade, shade, 
the leverage of, the leverage of
Space, shade, shade,
the leverage of, the leverage of


e|--------------------------------------|
B|--------------------------------------|
G|--7~~---------------------------------|
D|--7~~---------------------------------|
A|--------------------------------------|
E|--------------------------------------|


When I was down upon myself
I walked a road thats always there
you and I were everywhere
and I'm alone

She would never know the reason
that I loved to come and see her
where she sits I'll never go
you know it's always there


Solo 02:49 Dist. com algum tipo de wah
e|--12--------------12-------------12------------12-------------|
B|--12--------------12-------------12------------12-------------|
G|--12--------------12-------------12------------12-------------|
D|--14--------------12-------------10------------12-------------|
A|--------------------------------------------------------------|
E|--------------------------------------------------------------|

The leverage of, the leverage of

e|---12vvv~~~~--------------------------|
B|--------------------------------------|
G|--------------------------------------|
D|--------------------------------------|
A|--------------------------------------|
E|--------------------------------------|

Termina em
e|--------------------------------------|
B|--------------------------------------|
G|--------------------------------------|
D|--------------------------------------|
A|---7----------------------------------|
E|--------------------------------------|

Clipes

Cifra Club Pro

Aproveite o Cifra Club com benefícios exclusivos e sem anúncios
7 dias grátis
Cifra Club Pro
Aproveite o Cifra Club com benefícios exclusivos e sem anúncios
7 dias grátis