busca

Lovin' And Touchin'

Red Hot Chili Peppers

Lovin' and Touchin'
Red Hot Chili Peppers
Do CD Freaky Styley

Contra-Baixo

G-|-4------4------5------5------6------6------5------5-------|
D-|---5------5------5------5------5------5------5------5-----|
A-|-----5------5------5------5------5------5------5------5---|
E-|----------------------------------------------------------|
Repita 2x

G-|-6------6------7------7------9------9------7------7-------|
D-|---7------7------7------7------7------7------7------7-----|
A-|-----0------0------0------0------0------0------0------0---|
E-|----------------------------------------------------------|
Repita 2x

G-|-12------12------12------12------12------12------12------12--------|
D-|---12------12------12------12------12------12------12------12------|
A-|------0-------0-------0-------0-------0-------0-------0-------0--0-|
E-|-------------------------------------------------------------------|
Repita 2x

Clipes