Me And My Friends

Red Hot Chili Peppers

Tom: G
Introdução no baixo

Refrão:
                                          Last Fill
#1t1##1t2#e|----8-----8-----8-----8---8----------|----------|
B|----8-x-x-8-x-x-8-x-x-8-x-8----------|----5--7--|
G|----6-x-x-6-x-x-6-x-x-6-x-6--x--7----|----5--7--|
D|----7-x-x-7-x-x-7-x-x-7-x-7--x--7----|----------|
A|-----------------------------x--5----|----------|
E|-------------------------------------|----------|#/1t2##/1t1#

Verso:

#2t1##2t2#e|--------------------------------|
B|-------------6-6---------6-6----|
G|-------------5-5---------5-5----|
D|-------------4-4---------4-4----|
A|-------------5-5---------5-5----|
E|----0-0-0-0-------0-0-0---------|#/2t2##/2t1#

Toque isso depois do Solo:

#3t1##3t2#e|-------------------------------------|---------|
B|----8-x-x-8-x-x-8-x-x-8-x-8----------|----5----|
G|-*--7-x-x-7-x-x-7-x-x-7-x-7--x-----*-|----5----|
D|-*--6-x-x-6-x-x-6-x-x-6-x-6--x--7--*-|----5----|
A|----7-x-x-7-x-x-7-x-x-7-x-7--x--7----|---------|
E|--------------------------------5----|---------|#/3t2##/3t1#

Interludio:

#4t1##4t2#e|------------------------------------------|
B|------------------------------------------|
G|------------------------------------------|
D|-------0-------0-------0-------0-------0--|
A|--3/5-----3/5-----3/5-----3/5-----3/5-----|
E|------------------------------------------|#/4t2##/4t1#

obs: * = toca varias vezes

#5t1##5t2#-==Versão 2==-#/5t2##/5t1#

Intro: 

#6t1##6t2#e|-|----------------------------------------|-----------------------------------------|-
B|-|--13-x-x-12-x-x-13-x-x-13-x-x-13-x-x-x--|--3----3--3--3--3--3--3--5h7~~~~~--------|-
G|-|--12-x-x-12-x-x-12-x-x-12-x-x-12-x-x-x--|--2----2--2--2--2--2--2--5h7~~~~~--------|-
D|-|--11-x-x-11-x-x-11-x-x-11-x-x-11-x-x-x--|--0----0--0--0--0--0--0------------------|-
A|-|--12-----12-----12-----12-----12--------|-----------------------------------------|-
E|-|----------------------------------------|-----------------------------------------|-#/6t2##/6t1#

#7t1##7t2#e|-|----------------------------------------|-------------------------------------------|-
B|-|--13-x-x-12-x-x-13-x-x-13-x-x-13-x-x-x--|--3----3--3--3--3--3--3--12h14~~~~~--------|-
G|-|--12-x-x-12-x-x-12-x-x-12-x-x-12-x-x-x--|--2----2--2--2--2--2--2--12h14~~~~~--------|-
D|-|--11-x-x-11-x-x-11-x-x-11-x-x-11-x-x-x--|--0----0--0--0--0--0--0--------------------|-
A|-|--12-----12-----12-----12-----12--------|-------------------------------------------|-
E|-|----------------------------------------|-------------------------------------------|-#/7t2##/7t1#

#8t1##8t2#e|-|----------------------------------------|--------------------------------------|-
B|-|--13-x-x-12-x-x-13-x-x-13-x-x-13-x-x-x--|--3----3--3--3--3--5h7--5~~~~~--------|-
G|-|--12-x-x-12-x-x-12-x-x-12-x-x-12-x-x-x--|--2----2--2--2--2--5h7--5~~~~~--------|-
D|-|--11-x-x-11-x-x-11-x-x-11-x-x-11-x-x-x--|--0----0--0--0--0---------------------|-
A|-|--12-----12-----12-----12-----12--------|--------------------------------------|-
E|-|----------------------------------------|--------------------------------------|-#/8t2##/8t1#

#9t1##9t2#e|-|----------------------------------------|-------------------------------------------|-
B|-|--13-x-x-12-x-x-13-x-x-13-x-x-13-x-x-x--|--3----3--3--3--3--3--3--------------------|-
G|-|--12-x-x-12-x-x-12-x-x-12-x-x-12-x-x-x--|--2----2--2--2--2--2--2--12/14~~~~~--------|-
D|-|--11-x-x-11-x-x-11-x-x-11-x-x-11-x-x-x--|--0----0--0--0--0--0--0--------------------|-
A|-|--12-----12-----12-----12-----12--------|-------------------------------------------|-
E|-|----------------------------------------|-------------------------------------------|-#/9t2##/9t1#

#10t1##10t2#e|-|-------------------)----------------|-
B|-|--5---------------7)----------------|-
G|-|--5---------------7-----------------|-
D|-|------------------------------------|-
A|-|------------------------------------|-
E|-|------------------------------------|-#/10t2##/10t1#

Verso:

#11t1##11t2#e|-|---------------------------------|---------------------------------|-
B|-|----------6--6-6-------6--6-6-6--|----------6--6-6-------6--6-6-6--|-
G|-|----------5--5-5-------5--5-5-5--|----------5--5-5-------5--5-5-5--|-
D|-|----------4--4-4-------4--4-4-4--|----------4--4-4-------4--4-4-4--|-
A|-|----------5--5-5-------5--5-5-5--|----------5--5-5-------5--5-5-5--|-
E|-|--0-0-0-0--------0-0-0-----------|--0-0-0-0--------0-0-0-----------|-#/11t2##/11t1#

Refrão:

#12t1#     w/Variations     
#12t2#e|-|----------------------------------------|-----------------------------------------|-
B|-|--13-x-x-12-x-x-13-x-x-13-x-x-13-x-x-x--|--3----3--3--3--3--3--3--5h7~~~~~--------|-
G|-|--12-x-x-12-x-x-12-x-x-12-x-x-12-x-x-x--|--2----2--2--2--2--2--2--5h7~~~~~--------|-
D|-|--11-x-x-11-x-x-11-x-x-11-x-x-11-x-x-x--|--0----0--0--0--0--0--0------------------|-
A|-|--12-----12-----12-----12-----12--------|-----------------------------------------|-
E|-|----------------------------------------|-----------------------------------------|-#/12t2##/12t1#

#13t1##13t2#e|-|----------------------------------------|-------------------------------------------|-
B|-|--13-x-x-12-x-x-13-x-x-13-x-x-13-x-x-x--|--3----3--3--3--3--3--3--12h14~~~~~--------|-
G|-|--12-x-x-12-x-x-12-x-x-12-x-x-12-x-x-x--|--2----2--2--2--2--2--2--12h14~~~~~--------|-
D|-|--11-x-x-11-x-x-11-x-x-11-x-x-11-x-x-x--|--0----0--0--0--0--0--0--------------------|-
A|-|--12-----12-----12-----12-----12--------|-------------------------------------------|-
E|-|----------------------------------------|-------------------------------------------|-#/13t2##/13t1#

#14t1##14t2#e|-|----------------------------------------|--------------------------------------|-
B|-|--13-x-x-12-x-x-13-x-x-13-x-x-13-x-x-x--|--3----3--3--3--3--5h7--5~~~~~--------|-
G|-|--12-x-x-12-x-x-12-x-x-12-x-x-12-x-x-x--|--2----2--2--2--2--5h7--5~~~~~--------|-
D|-|--11-x-x-11-x-x-11-x-x-11-x-x-11-x-x-x--|--0----0--0--0--0---------------------|-
A|-|--12-----12-----12-----12-----12--------|--------------------------------------|-
E|-|----------------------------------------|--------------------------------------|-#/14t2##/14t1#

#15t1##15t2#e|-|----------------------------------------|-------------------------------------------|-
B|-|--13-x-x-12-x-x-13-x-x-13-x-x-13-x-x-x--|--3----3--3--3--3--3--3--12h14~~~~~--------|-
G|-|--12-x-x-12-x-x-12-x-x-12-x-x-12-x-x-x--|--2----2--2--2--2--2--2--12h14~~~~~--------|-
D|-|--11-x-x-11-x-x-11-x-x-11-x-x-11-x-x-x--|--0----0--0--0--0--0--0--------------------|-
A|-|--12-----12-----12-----12-----12--------|-------------------------------------------|-
E|-|----------------------------------------|-------------------------------------------|-#/15t2##/15t1#

#16t1##16t2#e|-|-------------------)----------------|-
B|-|--5---------------7)----------------|-
G|-|--5---------------7-----------------|-
D|-|------------------------------------|-
A|-|------------------------------------|-
E|-|------------------------------------|-#/16t2##/16t1#

Depois do solo de guitarra:

#17t1##17t2#e|-|-----------------------------------|----------------------------------------------------|-
B|-|-----------------------------------|----------------------------------------------------|-
G|-|--9-x-x-9-x-x-9-x-x-9-x-x-9-x-x-x--|--2----2--2--2--2--2--2--2--2--2--2--2--2--2--2--2--|-
D|-|--9-x-x-9-x-x-9-x-x-9-x-x-9-x-x-x--|--2----2--2--2--2--2--2--2--2--2--2--2--2--2--2--2--|-
A|-|--7-x-x-7-x-x-7-x-x-7-x-x-7-x-x-x--|--0----0--0--0--0--0--0--0--0--0--0--0--0--0--0--0--|-
E|-|-----------------------------------|----------------------------------------------------|-#/17t2##/17t1#

#18t1##18t2#e|-|-----------------------------------|----------------------------------------------------|-
B|-|-----------------------------------|----------------------------------------------------|-
G|-|--9-x-x-9-x-x-9-x-x-9-x-x-9-x-x-x--|--2----2--2--2--2--2--2--2--2--2--2--2--2--2--2--2--|-
D|-|--9-x-x-9-x-x-9-x-x-9-x-x-9-x-x-x--|--2----2--2--2--2--2--2--2--2--2--2--2--2--2--2--2--|-
A|-|--7-x-x-7-x-x-7-x-x-7-x-x-7-x-x-x--|--0----0--0--0--0--0--0--0--0--0--0--0--0--0--0--0--|-
E|-|-----------------------------------|----------------------------------------------------|-#/18t2##/18t1#

#19t1##19t2#e|-|-------------------------------|-
B|-|--5----------------------------|-
G|-|--5----------------------------|-
D|-|--5----------------------------|-
A|-|-------------------------------|-
E|-|-------------------------------|-#/19t2##/19t1#

Interludio:

#20t1##20t2#e|-|-----------------------------------|-----------------------------------|-
B|-|-----------------------------------|-----------------------------------|-
G|-|-----------------------------------|-----------------------------------|-
D|-|------0-----0-----0-----0-----0----|------0-----0-----0-----0-----0----|-
A|-|--3/5---3/5---3/5---3/5---3/5------|--3/5---3/5---3/5---3/5---3/5------|-
E|-|-----------------------------------|-----------------------------------|-#/20t2##/20t1#

Último Refrão:

#21t1##21t2#e|-|----------------------------------------|-----------------------------------------|-
B|-|--13-x-x-12-x-x-13-x-x-13-x-x-13-x-x-x--|--3----3--3--3--3--3--3--5h7~~~~~--------|-
G|-|--12-x-x-12-x-x-12-x-x-12-x-x-12-x-x-x--|--2----2--2--2--2--2--2--5h7~~~~~--------|-
D|-|--11-x-x-11-x-x-11-x-x-11-x-x-11-x-x-x--|--0----0--0--0--0--0--0------------------|-
A|-|--12-----12-----12-----12-----12--------|-----------------------------------------|-
E|-|----------------------------------------|-----------------------------------------|-#/21t2##/21t1#

#22t1##22t2#e|-|----------------------------------------|-------------------------------------------|-
B|-|--13-x-x-12-x-x-13-x-x-13-x-x-13-x-x-x--|--3----3--3--3--3--3--3--12h14~~~~~--------|-
G|-|--12-x-x-12-x-x-12-x-x-12-x-x-12-x-x-x--|--2----2--2--2--2--2--2--12h14~~~~~--------|-
D|-|--11-x-x-11-x-x-11-x-x-11-x-x-11-x-x-x--|--0----0--0--0--0--0--0--------------------|-
A|-|--12-----12-----12-----12-----12--------|-------------------------------------------|-
E|-|----------------------------------------|-------------------------------------------|-#/22t2##/22t1#

#23t1##23t2#e|-|----------------------------------------|--------------------------------------|-
B|-|--13-x-x-12-x-x-13-x-x-13-x-x-13-x-x-x--|--3----3--3--3--3--5h7--5~~~~~--------|-
G|-|--12-x-x-12-x-x-12-x-x-12-x-x-12-x-x-x--|--2----2--2--2--2--5h7--5~~~~~--------|-
D|-|--11-x-x-11-x-x-11-x-x-11-x-x-11-x-x-x--|--0----0--0--0--0---------------------|-
A|-|--12-----12-----12-----12-----12--------|--------------------------------------|-
E|-|----------------------------------------|--------------------------------------|-#/23t2##/23t1#

#24t1##24t2#e|-|----------------------------------------|-------------------------------------------|-
B|-|--13-x-x-12-x-x-13-x-x-13-x-x-13-x-x-x--|--3----3--3--3--3--3--3--12h14~~~~~--------|-
G|-|--12-x-x-12-x-x-12-x-x-12-x-x-12-x-x-x--|--2----2--2--2--2--2--2--12h14~~~~~--------|-
D|-|--11-x-x-11-x-x-11-x-x-11-x-x-11-x-x-x--|--0----0--0--0--0--0--0--------------------|-
A|-|--12-----12-----12-----12-----12--------|-------------------------------------------|-
E|-|----------------------------------------|-------------------------------------------|-#/24t2##/24t1#

#25t1##25t2#e|-|-------------------------------------------|-
B|-|--13-x-x-13-x-x-13-x-x-13-x-x-13-13-13-13--|-
G|-|--12-x-x-12-x-x-12-x-x-12-x-x-12-12-12-12--|-
D|-|--11-x-x-11-x-x-11-x-x-11-x-x-11-11-11-11--|-
A|-|--12-----12-----12-----12-----12-12-12-12--|-
E|-|-------------------------------------------|-#/25t2##/25t1#
Composição: Hillel Slovak / Jack IronsColaboração e revisão: Taino VieiraRicardo Penteado