busca

Me And My Friends

Red Hot Chili Peppers

Tom: D
Introdução no baixo

Refrão:
                                          Last Fill
e|----8-----8-----8-----8---8----------|----------|
B|----8-x-x-8-x-x-8-x-x-8-x-8----------|----5--7--|
G|----6-x-x-6-x-x-6-x-x-6-x-6--x--7----|----5--7--|
D|----7-x-x-7-x-x-7-x-x-7-x-7--x--7----|----------|
A|-----------------------------x--5----|----------|
E|-------------------------------------|----------|

Verso:

e|--------------------------------|
B|-------------6-6---------6-6----|
G|-------------5-5---------5-5----|
D|-------------4-4---------4-4----|
A|-------------5-5---------5-5----|
E|----0-0-0-0-------0-0-0---------|

Toque isso depois do Solo:

e|-------------------------------------|---------|
B|----8-x-x-8-x-x-8-x-x-8-x-8----------|----5----|
G|-*--7-x-x-7-x-x-7-x-x-7-x-7--x-----*-|----5----|
D|-*--6-x-x-6-x-x-6-x-x-6-x-6--x--7--*-|----5----|
A|----7-x-x-7-x-x-7-x-x-7-x-7--x--7----|---------|
E|--------------------------------5----|---------|

Interludio:

e|------------------------------------------|
B|------------------------------------------|
G|------------------------------------------|
D|-------0-------0-------0-------0-------0--|
A|--3/5-----3/5-----3/5-----3/5-----3/5-----|
E|------------------------------------------|

obs: * = toca varias vezes

-==Versão 2==-

Intro: 

e|-|----------------------------------------|-----------------------------------------|-
B|-|--13-x-x-12-x-x-13-x-x-13-x-x-13-x-x-x--|--3----3--3--3--3--3--3--5h7~~~~~--------|-
G|-|--12-x-x-12-x-x-12-x-x-12-x-x-12-x-x-x--|--2----2--2--2--2--2--2--5h7~~~~~--------|-
D|-|--11-x-x-11-x-x-11-x-x-11-x-x-11-x-x-x--|--0----0--0--0--0--0--0------------------|-
A|-|--12-----12-----12-----12-----12--------|-----------------------------------------|-
E|-|----------------------------------------|-----------------------------------------|-

e|-|----------------------------------------|-------------------------------------------|-
B|-|--13-x-x-12-x-x-13-x-x-13-x-x-13-x-x-x--|--3----3--3--3--3--3--3--12h14~~~~~--------|-
G|-|--12-x-x-12-x-x-12-x-x-12-x-x-12-x-x-x--|--2----2--2--2--2--2--2--12h14~~~~~--------|-
D|-|--11-x-x-11-x-x-11-x-x-11-x-x-11-x-x-x--|--0----0--0--0--0--0--0--------------------|-
A|-|--12-----12-----12-----12-----12--------|-------------------------------------------|-
E|-|----------------------------------------|-------------------------------------------|-

e|-|----------------------------------------|--------------------------------------|-
B|-|--13-x-x-12-x-x-13-x-x-13-x-x-13-x-x-x--|--3----3--3--3--3--5h7--5~~~~~--------|-
G|-|--12-x-x-12-x-x-12-x-x-12-x-x-12-x-x-x--|--2----2--2--2--2--5h7--5~~~~~--------|-
D|-|--11-x-x-11-x-x-11-x-x-11-x-x-11-x-x-x--|--0----0--0--0--0---------------------|-
A|-|--12-----12-----12-----12-----12--------|--------------------------------------|-
E|-|----------------------------------------|--------------------------------------|-

e|-|----------------------------------------|-------------------------------------------|-
B|-|--13-x-x-12-x-x-13-x-x-13-x-x-13-x-x-x--|--3----3--3--3--3--3--3--------------------|-
G|-|--12-x-x-12-x-x-12-x-x-12-x-x-12-x-x-x--|--2----2--2--2--2--2--2--12/14~~~~~--------|-
D|-|--11-x-x-11-x-x-11-x-x-11-x-x-11-x-x-x--|--0----0--0--0--0--0--0--------------------|-
A|-|--12-----12-----12-----12-----12--------|-------------------------------------------|-
E|-|----------------------------------------|-------------------------------------------|-

e|-|-------------------)----------------|-
B|-|--5---------------7)----------------|-
G|-|--5---------------7-----------------|-
D|-|------------------------------------|-
A|-|------------------------------------|-
E|-|------------------------------------|-

Verso:

e|-|---------------------------------|---------------------------------|-
B|-|----------6--6-6-------6--6-6-6--|----------6--6-6-------6--6-6-6--|-
G|-|----------5--5-5-------5--5-5-5--|----------5--5-5-------5--5-5-5--|-
D|-|----------4--4-4-------4--4-4-4--|----------4--4-4-------4--4-4-4--|-
A|-|----------5--5-5-------5--5-5-5--|----------5--5-5-------5--5-5-5--|-
E|-|--0-0-0-0--------0-0-0-----------|--0-0-0-0--------0-0-0-----------|-

Refrão:

     w/Variations     
e|-|----------------------------------------|-----------------------------------------|-
B|-|--13-x-x-12-x-x-13-x-x-13-x-x-13-x-x-x--|--3----3--3--3--3--3--3--5h7~~~~~--------|-
G|-|--12-x-x-12-x-x-12-x-x-12-x-x-12-x-x-x--|--2----2--2--2--2--2--2--5h7~~~~~--------|-
D|-|--11-x-x-11-x-x-11-x-x-11-x-x-11-x-x-x--|--0----0--0--0--0--0--0------------------|-
A|-|--12-----12-----12-----12-----12--------|-----------------------------------------|-
E|-|----------------------------------------|-----------------------------------------|-

e|-|----------------------------------------|-------------------------------------------|-
B|-|--13-x-x-12-x-x-13-x-x-13-x-x-13-x-x-x--|--3----3--3--3--3--3--3--12h14~~~~~--------|-
G|-|--12-x-x-12-x-x-12-x-x-12-x-x-12-x-x-x--|--2----2--2--2--2--2--2--12h14~~~~~--------|-
D|-|--11-x-x-11-x-x-11-x-x-11-x-x-11-x-x-x--|--0----0--0--0--0--0--0--------------------|-
A|-|--12-----12-----12-----12-----12--------|-------------------------------------------|-
E|-|----------------------------------------|-------------------------------------------|-

e|-|----------------------------------------|--------------------------------------|-
B|-|--13-x-x-12-x-x-13-x-x-13-x-x-13-x-x-x--|--3----3--3--3--3--5h7--5~~~~~--------|-
G|-|--12-x-x-12-x-x-12-x-x-12-x-x-12-x-x-x--|--2----2--2--2--2--5h7--5~~~~~--------|-
D|-|--11-x-x-11-x-x-11-x-x-11-x-x-11-x-x-x--|--0----0--0--0--0---------------------|-
A|-|--12-----12-----12-----12-----12--------|--------------------------------------|-
E|-|----------------------------------------|--------------------------------------|-

e|-|----------------------------------------|-------------------------------------------|-
B|-|--13-x-x-12-x-x-13-x-x-13-x-x-13-x-x-x--|--3----3--3--3--3--3--3--12h14~~~~~--------|-
G|-|--12-x-x-12-x-x-12-x-x-12-x-x-12-x-x-x--|--2----2--2--2--2--2--2--12h14~~~~~--------|-
D|-|--11-x-x-11-x-x-11-x-x-11-x-x-11-x-x-x--|--0----0--0--0--0--0--0--------------------|-
A|-|--12-----12-----12-----12-----12--------|-------------------------------------------|-
E|-|----------------------------------------|-------------------------------------------|-

e|-|-------------------)----------------|-
B|-|--5---------------7)----------------|-
G|-|--5---------------7-----------------|-
D|-|------------------------------------|-
A|-|------------------------------------|-
E|-|------------------------------------|-

Depois do solo de guitarra:

e|-|-----------------------------------|----------------------------------------------------|-
B|-|-----------------------------------|----------------------------------------------------|-
G|-|--9-x-x-9-x-x-9-x-x-9-x-x-9-x-x-x--|--2----2--2--2--2--2--2--2--2--2--2--2--2--2--2--2--|-
D|-|--9-x-x-9-x-x-9-x-x-9-x-x-9-x-x-x--|--2----2--2--2--2--2--2--2--2--2--2--2--2--2--2--2--|-
A|-|--7-x-x-7-x-x-7-x-x-7-x-x-7-x-x-x--|--0----0--0--0--0--0--0--0--0--0--0--0--0--0--0--0--|-
E|-|-----------------------------------|----------------------------------------------------|-

e|-|-----------------------------------|----------------------------------------------------|-
B|-|-----------------------------------|----------------------------------------------------|-
G|-|--9-x-x-9-x-x-9-x-x-9-x-x-9-x-x-x--|--2----2--2--2--2--2--2--2--2--2--2--2--2--2--2--2--|-
D|-|--9-x-x-9-x-x-9-x-x-9-x-x-9-x-x-x--|--2----2--2--2--2--2--2--2--2--2--2--2--2--2--2--2--|-
A|-|--7-x-x-7-x-x-7-x-x-7-x-x-7-x-x-x--|--0----0--0--0--0--0--0--0--0--0--0--0--0--0--0--0--|-
E|-|-----------------------------------|----------------------------------------------------|-

e|-|-------------------------------|-
B|-|--5----------------------------|-
G|-|--5----------------------------|-
D|-|--5----------------------------|-
A|-|-------------------------------|-
E|-|-------------------------------|-

Interludio:

e|-|-----------------------------------|-----------------------------------|-
B|-|-----------------------------------|-----------------------------------|-
G|-|-----------------------------------|-----------------------------------|-
D|-|------0-----0-----0-----0-----0----|------0-----0-----0-----0-----0----|-
A|-|--3/5---3/5---3/5---3/5---3/5------|--3/5---3/5---3/5---3/5---3/5------|-
E|-|-----------------------------------|-----------------------------------|-

Último Refrão:

e|-|----------------------------------------|-----------------------------------------|-
B|-|--13-x-x-12-x-x-13-x-x-13-x-x-13-x-x-x--|--3----3--3--3--3--3--3--5h7~~~~~--------|-
G|-|--12-x-x-12-x-x-12-x-x-12-x-x-12-x-x-x--|--2----2--2--2--2--2--2--5h7~~~~~--------|-
D|-|--11-x-x-11-x-x-11-x-x-11-x-x-11-x-x-x--|--0----0--0--0--0--0--0------------------|-
A|-|--12-----12-----12-----12-----12--------|-----------------------------------------|-
E|-|----------------------------------------|-----------------------------------------|-

e|-|----------------------------------------|-------------------------------------------|-
B|-|--13-x-x-12-x-x-13-x-x-13-x-x-13-x-x-x--|--3----3--3--3--3--3--3--12h14~~~~~--------|-
G|-|--12-x-x-12-x-x-12-x-x-12-x-x-12-x-x-x--|--2----2--2--2--2--2--2--12h14~~~~~--------|-
D|-|--11-x-x-11-x-x-11-x-x-11-x-x-11-x-x-x--|--0----0--0--0--0--0--0--------------------|-
A|-|--12-----12-----12-----12-----12--------|-------------------------------------------|-
E|-|----------------------------------------|-------------------------------------------|-

e|-|----------------------------------------|--------------------------------------|-
B|-|--13-x-x-12-x-x-13-x-x-13-x-x-13-x-x-x--|--3----3--3--3--3--5h7--5~~~~~--------|-
G|-|--12-x-x-12-x-x-12-x-x-12-x-x-12-x-x-x--|--2----2--2--2--2--5h7--5~~~~~--------|-
D|-|--11-x-x-11-x-x-11-x-x-11-x-x-11-x-x-x--|--0----0--0--0--0---------------------|-
A|-|--12-----12-----12-----12-----12--------|--------------------------------------|-
E|-|----------------------------------------|--------------------------------------|-

e|-|----------------------------------------|-------------------------------------------|-
B|-|--13-x-x-12-x-x-13-x-x-13-x-x-13-x-x-x--|--3----3--3--3--3--3--3--12h14~~~~~--------|-
G|-|--12-x-x-12-x-x-12-x-x-12-x-x-12-x-x-x--|--2----2--2--2--2--2--2--12h14~~~~~--------|-
D|-|--11-x-x-11-x-x-11-x-x-11-x-x-11-x-x-x--|--0----0--0--0--0--0--0--------------------|-
A|-|--12-----12-----12-----12-----12--------|-------------------------------------------|-
E|-|----------------------------------------|-------------------------------------------|-

e|-|-------------------------------------------|-
B|-|--13-x-x-13-x-x-13-x-x-13-x-x-13-13-13-13--|-
G|-|--12-x-x-12-x-x-12-x-x-12-x-x-12-12-12-12--|-
D|-|--11-x-x-11-x-x-11-x-x-11-x-x-11-11-11-11--|-
A|-|--12-----12-----12-----12-----12-12-12-12--|-
E|-|-------------------------------------------|-

Clipes