busca

Meet Me At The Corner

Red Hot Chili Peppers

Tom: G#
Intro:
E|----------------------------------------------|
B|--8-----8--8--8-----9----8---------------8----|
G|--8-----8--8--8-----10---8---------------8----|
D|--10----10-10-10----9----8----8----------8----|
A|--10----10-10-10---------8h10-10-10---10-10---|
E|--8-----8--8--8-------------------------------|

E|----------------------------------------------|
B|--8-----8--8--8----9---8----------------------|
G|--8-----8--8--8----10--8----------------------|
D|--10----10-10-10---9---8---------8h10p8-------|
A|--10----10-10-10-------8h10-8h10--------10/---|
E|--8-----8--8--8-----------------------------\-|

Verso:
    Please don't ask me who
E|-----------------------------------------.----|
B|--8-----8--8--8-----9----8------8--------8----|
G|--8-----8--8--8-----10---8------8--------8----|
D|--10----10-10-10----9----8------8--------8----|
A|--10----10-10-10---------8h10---10-------10---|
E|--8-----8--8--8-------------------------------|

    Oh, who you think I am
E|----------------------------------------------|
B|--8-----8--8--8----9---8-------------------.--|
G|--8-----8--8--8----10--8------8--8h10p8----x--|
D|--10----10-10-10---9---8------8---------10----|
A|--10----10-10-10-------8h10---10--------------|
E|--8-----8--8--8-------------------------------|

    I could live without that
E|-----------------------------------------.----|
B|--8-----8--8--8-----9----8------8--------8----|
G|--8-----8--8--8-----10---8------8--------8----|
D|--10----10-10-10----9----8------8--------8----|
A|--10----10-10-10---------8h10---10-------10---|
E|--8-----8--8--8-------------------------------|

    I'm just a modest man
E|--------8-------------------------------------|
B|--8-------8--------9----8------8-----8---8----|
G|--8---------8------10---8------8-----8---8----|
D|--10---------------9----8------8-----8---8----|
A|--10--------------------8h10---10----10--10---|
E|--8-------------------------------------------|

    Meet me at the corner, and oh
E|--------------------------------|
B|--9--------------8--------------|
G|--8--------------8--------------|
D|--10-------------8--------------|
A|--11-------------6--------------|
E|--------------------------------|

    Tell me what to do   coz I messed
E|--------------------------------|
B|--11---11-----------9-----------|
G|--10------10--------10----------|
D|--12---------12-----9-----------|
A|--11----------------11----------|
E|--10----------------10----------|

    Up on you, and had I known all
E|-------------------------------------|
B|--8----------8-------8--------8------|
G|--8--8-------8-------8--------8------|
D|--10---10------10----10-10----10-10--|
A|--10------10-------------------------|
E|--8----------------7--------7--------|

    That I do now, I'm guessing were through now
E|------------------------------------|
B|-----8------8-8-------8-------8--.--|
G|-----8------8-8-------8-------8--8--|
D|------------------------------------|
A|------------------------------------|
E|--6------6---------5--------5-------|

   Receding into the forest, I will
E|------------------------------------|
B|-3/4--------4-----8-----------------|
G|------------5-----8-----------------|
D|----------6-------8---------8-------|
A|--------6---------6----8/10---10/---|
E|------4-----------------------------|

   Lay around and wait and i'll wait for you...
E|---------------------7--------------|
B|-----6-6-6---------6---------8------|
G|-----7-7-7-------7-----------8------|
D|-----6-6-6-----5-------------10-----|
A|-5---5-5-5-------------------10-----|
E|-----------------------------8------|

Solo:
E|-----------------------------------------------|
B|-----------------------------------------------|
G|---------------------------------8-10-8--------|
D|-8h10p8--------------------8-10---------8-10-8-|
A|--------10---8h10p8---10-----------------------|
E|-----------------------------------------------|

E|--------------------------------------13/15--13--18--15-|
B|-11h13b(15)bd13p11----11-13b(15)bd13--------------------|
G|-------------------12-----------------------------------|
D|--------------------------------------------------------|
A|--------------------------------------------------------|
E|--------------------------------------------------------|

Verso:
  Please don't ask me where
  Oh, where you think I've been
  I've been a lot of places
  But this could be my whim
E|------------------------------------|
B|---------9-------------8------------|
G|------10-------12------8------------|
D|---10----------12------10-----------|
A|-8----------10---------10-----------|
E|-----------------------8------------|

E|------------------------------------|
B|------------------------------------|
G|-8h10p8-----------------------------|
D|--------10--8h10p8------------------|
A|-------------------10--8h10p8-------|
E|------------------------------11^---|

Refrão:
  Meet me at the corner, and oh
  Tell me what to do 'cause I messed up on you
  And had I known, oh, that I do now...
  I'm guessing we're through now
  Receding into the forest,
  I will lay around and wait
  And I'll wait for you

E|-8----------------------------------|
B|---8--------------------------------|
G|-----8-------8----------------------|
D|----------10-----------8-10---------|
A|-------10--------8-10---------------|
E|------------------------------------|

Ponte:
   I feel so bad, thought you oughta know
E|---7-------------------------------7--------------|
B|---8-------------------------------8--------------|
G|---9-------------------------------9--------------|
D|---9-------------------------------10-------------|
A|---7----------------------------------------------|
E|---0-------------------------------8--------------|
                                    (T)
   And I feel so bad, thought you oughta know
E|-------7-------------------------------7----------|
B|-------8-------------------------------8----------|
G|-------9-------------------------------9----------|
D|-------9-------------------------------10---------|
A|-------7------------------------------------------|
E|-------0-------------------------------8----------|

   Something I wanna show
E|-------------------5-----------------|
B|-------------------5-----------------|
G|-------------------5-----------------|
D|-------------------7-----------------|
A|-------------------0-----------------|
E|------------------(5)----------------|

   I thought you oughta know
E|------------------------------------|
B|----------------------9-------------|
G|----------------------8-------------|
D|----------------------10------------|
A|----------------------8-------------|
E|------------------------------------|


E|------------------------------------|
B|-8-----------------6----------------|
G|-8-----------------6----------------|
D|-8-----------------6----------------|
A|-6-----------------4----------------|
E|------------------------------------|

Verso:
   Please don't say you want
   To keep in touch out there
   To see you on the corner
   Aw, that I just can't bear

   Well, meet me at the corner and you'll
   Tell me what to do
   'Cause I messed up on you
   And had I known, oh, that I do now
   I'm guessing we're through now
   Receding into the forest,
   I will lay around and wait

   Eb           Bb
   Hey, and I turned

     C#                    G#
   I turned my head when I thought

           Eb                 Bb
   I saw a sign from the gods

     C#
   A sign from the gods

        G#                            Eb
   That you weren't meant to be mine

            Bb
   And it's fine

   C#                  G#
   Taking it all for a ride

                           Eb    Bb
   Till the day when it's gone......

     C#           G#                  Eb
   I mystified my way and it all went wrong

              Bb     C#                     G#
   When it's gone, I live and I love, and I lose and I win

            Eb                    Bb
   But it's better than ever, whenever I'm in

   C#                   G#                    Eb
   Thank you, girl, for everywhere that we've been

Outro:
E|-------------------------------------------------------|
B|---pb8(11)-(11)-(11)-(11)bd8---8b(9)bd8--8\6--8b(9)--8-|
G|-------------------------------------------------------|
D|-------------------------------------------------------|
A|-------------------------------------------------------|
E|-------------------------------------------------------|

E|--------------4---4------------------------------------|
B|--6\4--6----6---------6b(8)--4b(6)--4----4-----4-4-----|
G|-------------------------------------------------------|
D|-------------------------------------------------------|
A|-------------------------------------------------------|
E|-------------------------------------------------------|

E|-------------------------------------------------------|
B|------4------------------------------------------------|
G|--3/5---5\3---3--3b(5)bd3--1--3b(5)bd3--1--0-----------|
D|-------------------------------------------------------|
A|-------------------------------------------------------|
E|-------------------------------------------------------|

Clipes

Cifra Club Pro

Aproveite o Cifra Club com benefícios exclusivos e sem anúncios
7 dias grátis
Cifra Club Pro
Aproveite o Cifra Club com benefícios exclusivos e sem anúncios
7 dias grátis