busca

Mercy Mercy

Red Hot Chili Peppers

Tom: F
Intro e verso, segue fazendo isso 4 vezes
E|-------|-------------------|
B|-------|-------------------|
G|-------|--8~----------8----|
D|-------|-------------------|
A|-------|-------------------|
E|-------|-------------------|

Verso parte 1 one fill  
|-----------------|
|-----6~----------|
|--8-----------8--|
|-----------------|
|-----------------|
|-----------------|

Verso parte 1 fill antes do verso 2
|-----------------------|
|-----------------6-----|
|-----5--8--5--8-----8--|
|-----------------------|
|-----------------------|
|-----------------------|

Verso parte 2, toque o outro terminando o segundo .
---------------------------------------------|
--6h8-8-6----------------6-------------------| v-2nd ending-v
----------------------8------8---*--5--5--5--| --5--5--8--|
---------------------------------------------|
---------------------------------------------|
---------------------------------------------|


Chorus  

 D#                                    Bb
------------------------|-------------------------|
------------------------|-------------------------|
--8----8--8----8--8--8--|--8--8--8----------------|
--8----8--8----8--8--8--|--8--8--8-----8--8----8--|
--6----6--6----6--6--6--|--6--6--6--x--8--8----8--|
------------------------|--------------6--6----6--|
             C
------------------------------|------------------------|
------------------------------|------------------------|
------------------------------|------------------------|
--8---------10----------------|--10--10----------------|
--8---------10----------------|--10--10----------10----|
--6----------8----------------|---8---8--8s--10--------|




última vez em que toca o verso 
------------------------|-------------------------|
------------------------|-------------------------|
--8----8--8----8--8--8--|--8--8--8----------------|
--8----8--8----8--8--8--|--8--8--8-----8--8----8--|
--6----6--6----6--6--6--|--6--6--6--x--8--8----8--|
------------------------|--------------6--6----6--|
                                  
------------------------------|-------------------||
------------------------------|-------------------||
------------------------------|-------------------||
--8---------10----------------|-------------------||
--8---------10----------------|-------------------||
--6----------8----------------|-------------------||

Clipes