busca

Minor Thing

Red Hot Chili Peppers

Tom: D
Versão 1
-======-

Verse 1  x4
   Fm                                       D
e|-2-2-2-2-2-2-2-2-2-2-2-2-2-2-2-2-2-2-2-2--5-5-5-5-5-5-5-5-5-5-5-5-5-9-9-9-9-7-7-7-|
B|-2-2-2-2-2-2-2-2-2-2-2-2-2-2-2-2-2-2-2-2--7-7-7-7-7-7-7-7-7-7-7-7-7-5-5-5-5-5-5-5-|
G|-2-2-2-2-2-2-2-2-2-2-2-2-2-2-2-2-2-2-2-2--7-7-7-7-7-7-7-7-7-7-7-7-7-7-7-7-7-7-7-7-|
D|-4-4-4-4-4-4-4-4-4-4-4-4-4-4-4-4-4-4-4-4--7-7-7-7-7-7-7-7-7-7-7-7-7-7-7-7-7-7-7-7-|
A|-4-4-4-4-4-4-4-4-4-4-4-4-4-4-4-4-4-4-4-4--5-5-5-5-5-5-5-5-5-5-5-5-5-5-5-5-5-5-5-5-|
E|-2-2-2-2-2-2-2-2-2-2-2-2-2-2-2-2-2-4-4-4--x-x-x-x-x-x-x-x-x-x-x-x-x-x-x-x-x-x-x-x-|

Pre Chorus 
e|----9--9--9--9--9--9----12---14-14-14-14-14-14----|
B|----10-10-10-10-10-10---13---15-15-15-15-15-15----|
G|----9--9--9--9--9--9----13---14-14-14-14-14-14----|  x2
D|--------------------------------------------------|
A|--------------------------------------------------|
E|--------------------------------------------------|

Chorus  x2
e|----14-14-14-14-14-14-14-14-14-14-14-14-14-14-14-14--17-17-17-17--19-19-19-19----|
B|----14-14-14-14-14-14-14-14-14-14-14-14-14-14-14-14--17-17-17-17--19-19-19-19----|
G|---------------------------------------------------------------------------------|
D|---------------------------------------------------------------------------------|
A|---------------------------------------------------------------------------------|
E|---------------------------------------------------------------------------------|

Verse 2  x4
   Fm                                       D
e|-2-2-2-2-2-2-2-2-2-2-2-2-2-2-2-2-2-2-2-2--5-5-5-5-5-5-5-5-5-5-5-5-5-9-9-9-9-7-7-7-|
B|-2-2-2-2-2-2-2-2-2-2-2-2-2-2-2-2-2-2-2-2--7-7-7-7-7-7-7-7-7-7-7-7-7-5-5-5-5-5-5-5-|
G|-2-2-2-2-2-2-2-2-2-2-2-2-2-2-2-2-2-2-2-2--7-7-7-7-7-7-7-7-7-7-7-7-7-7-7-7-7-7-7-7-|
D|-4-4-4-4-4-4-4-4-4-4-4-4-4-4-4-4-4-4-4-4--7-7-7-7-7-7-7-7-7-7-7-7-7-7-7-7-7-7-7-7-|
A|-4-4-4-4-4-4-4-4-4-4-4-4-4-4-4-4-4-4-4-4--5-5-5-5-5-5-5-5-5-5-5-5-5-5-5-5-5-5-5-5-|
E|-2-2-2-2-2-2-2-2-2-2-2-2-2-2-2-2-2-4-4-4--x-x-x-x-x-x-x-x-x-x-x-x-x-x-x-x-x-x-x-x-|

Pre Chorus
e|----9--9--9--9--9--9----12---14-14-14-14-14-14----|
B|----10-10-10-10-10-10---13---15-15-15-15-15-15----|
G|----9--9--9--9--9--9----13---14-14-14-14-14-14----|  x2
D|--------------------------------------------------|
A|--------------------------------------------------|
E|--------------------------------------------------|

Chorus  x4
e|----14-14-14-14-14-14-14-14-14-14-14-14-14-14-14-14--17-17-17-17--19-19-19-19----|
B|----14-14-14-14-14-14-14-14-14-14-14-14-14-14-14-14--17-17-17-17--19-19-19-19----|
G|---------------------------------------------------------------------------------|
D|---------------------------------------------------------------------------------|
A|---------------------------------------------------------------------------------|
E|---------------------------------------------------------------------------------|

1st Solo
e|----14----------------------------------------------------------
B|----------14--17-----------------------------14-----------------
G|------------------11b13r11--11-11-11-11-11-------13b14r13--11---
D|----------------------------------------------------------------
A|----------------------------------------------------------------
E|----------------------------------------------------------------

1st Solo
e|-----------------------------------------------------------------------|
B|--14--17----------------14---------------------------------------------|
G|-----------11b13r11-11------13b14r13--11---11/13\9--9/11\6--6--6--6----|
D|-----------------------------------------------------------------------|
A|-----------------------------------------------------------------------|
E|-----------------------------------------------------------------------|

Verse 3  x4
   F                                        D                         F#m     Em
e|-2-2-2-2-2-2-2-2-2-2-2-2-2-2-2-2-2-2-2-2--5-5-5-5-5-5-5-5-5-5-5-5-5-9-9-9-9-7-7-7-|
B|-2-2-2-2-2-2-2-2-2-2-2-2-2-2-2-2-2-2-2-2--7-7-7-7-7-7-7-7-7-7-7-7-7-5-5-5-5-5-5-5-|
G|-2-2-2-2-2-2-2-2-2-2-2-2-2-2-2-2-2-2-2-2--7-7-7-7-7-7-7-7-7-7-7-7-7-7-7-7-7-7-7-7-|
D|-4-4-4-4-4-4-4-4-4-4-4-4-4-4-4-4-4-4-4-4--7-7-7-7-7-7-7-7-7-7-7-7-7-7-7-7-7-7-7-7-|
A|-4-4-4-4-4-4-4-4-4-4-4-4-4-4-4-4-4-4-4-4--5-5-5-5-5-5-5-5-5-5-5-5-5-5-5-5-5-5-5-5-|
E|-2-2-2-2-2-2-2-2-2-2-2-2-2-2-2-2-2-4-4-4--x-x-x-x-x-x-x-x-x-x-x-x-x-x-x-x-x-x-x-x-|

Last Solo  x2
e|----------------------------------------------------------------------------------|
B|----------------------------------------------------------------------------------|
G|-4----4--9---11--6------4----4--9---7--6-----4----4--9---11--6------4----9--7---6-|
D|----------------------------------------------------------------------------------|
A|----------------------------------------------------------------------------------|
E|----------------------------------------------------------------------------------|



Versão 2
-======-


Intro|
e|-0--0-0-0-0-0-0-0-0-(12)------------------9--9-9-9-9--7-7--|
B|-5--5-5-5-5-5-5-5-5--12--10--10-10-10-10--10-10101010-1010-|
G|-6--6-6-6-6-6-6-6-6--13--11--11-11-11-11-------------------|
D|(7--7-7-7-7-7-7-7-7)-14--12--12-12-12-12-------------------|
A|-----------------------------------------------------------|
E|-----------------------------------------------------------|

Chorus|                     1
e|-0--0-0-0-0-0-0-0-0-(12)||-12--12-12-12-12--12--12-12-12-12-|
B|-5--5-5-5-5-5-5-5-5--12-||-10--10-10-10-10--10--10-10-10-10-|
G|-6--6-6-6-6-6-6-6-6--13-||-11--11-11-11-11--11--11-11-11-11-|
D|(7--7-7-7-7-7-7-7-7)-14-||-12--12-12-12-12--12--12-12-12-12-|
A|------------------------||----------------------------------|
E|------------------------||----------------------------------|
  2________________________________________
e|----------------------9--9-9-9-9--7-7--|
B|-10--10-10-10-10--10--10-10101010-1010-|
G|-11--11-11-11-11--11-------------------|
D|-12--12-12-12-12--12-------------------|
A|---------------------------------------|
E|---------------------------------------|

  3___________________________________
e|-9---9--9--9--9---9---9--9--9--9--|
B|-10--10-10-10-10--10--10-10-10-10-|
G|-11--11-11-11-11--11--11-11-11-11-|
D|-12--12-12-12-12--12--12-12-12-12-|
A|----------------------------------|
E|----------------------------------|

Bridge|
e|-9--9-9--9-9--12--14--14-14--14-14-14-14-||
B|-10-1010-1010-12--15--15-15--15-15-15-15-|
G|-9--9-9--9-9--13--14--14-14--14-14-14-14-|
D|-----------------------------------------|
A|-----------------------------------------|
E|-----------------------------------------|

Rap part| (Play each note four times)
e|-14-14-14-14-14-14-17-19--14-14-14-14-14-14-17-16-|
B|-14-14-14-14-14-14-17-19--14-14-14-14-14-14-17-16-|
G|--------------------------------------------------|
D|--------------------------------------------------|
A|--------------------------------------------------|
E|--------------------------------------------------|

Chorus, bridge and rap part

Solo|
e|--------------------------------------------------------------|
B|-17b19-------r17--14--17-----------------------14-------------|
G|--------------------------------------------------13b14r13-11-|
D|--------------------------16b18--16-16---16-16----------------|
A|--------------------------------------------------------------|
E|--------------------------------------------------------------|

e|--------12-------------------------------------------------------|
B|----14-----------------14----------------------------------------|
G|-11--------11b13r11-11----13b14r13-11--11h13---------------------|
D|---------------------------------------------14--14b16r14-11-11\-|
A|-----------------------------------------------------------------|
E|-----------------------------------------------------------------|

Chorus

Outtro| (Add some variations to it)
e|------------------------------------------------|
B|----------5--7-------------------5--------------|
G|-4----4-4-------6-------4----4-4----6b7r6-------|
D|------------------------------------------------|
A|------------------------------------------------|
E|------------------------------------------------|

Over these chords|
E   12 14 14 13 12 12
F#m    9  11 11 10 9

Clipes

Cifra Club Pro

Aproveite o Cifra Club com benefícios exclusivos e sem anúncios
7 dias grátis
Cifra Club Pro
Aproveite o Cifra Club com benefícios exclusivos e sem anúncios
7 dias grátis