busca

Mommy Where's Daddy

Red Hot Chili Peppers

Tom: C
Intro
|-13---------------------------------------------------------------------------
|-12--13-12/-------------------------------------------------------------------
|-10-------------------10-12^p10-----------------------------------------------
|------------------/12-------------10-10-10h12--10-----------------------------
|--------------------------------------------------9h10--9h10-10p8-------------
|------------------------------------------------------------------10-10-10-8--
            
-------|
-------|
-------|
-------|
-------|
-8h10--|                                           

Verse
|-7-7-7-7---7-7-7-7---7-7-7-7---7-7-7-7--
|-6-6-6-6---6-6-6-6---6-6-6-6---6-6-6-6--
|-5-5-5-5---5-5-5-5---5-5-5-5---5-5-5-5--
|----------------------------------------
|----------------------------------------
|----------------------------------------                         

Breaks (1:16 & 2:16)
|-3---------5--
|-3---------6--
|-4---------5--
|-5---------7--
|-5---------5--
|-3------------
                 
Verse
|-7-7-7-7---7-7-7-7---7-7-7-7---7-7-7-7--
|-6-6-6-6---6-6-6-6---6-6-6-6---6-6-6-6--
|-5-5-5-5---5-5-5-5---5-5-5-5---5-5-5-5--
|----------------------------------------
|----------------------------------------
|----------------------------------------                         

Outro
|-13---------------------------------------------------------------------------
|-12--13-12/-------------------------------------------------------------------
|-10-------------------10-12^p10-----------------------------------------------
|------------------/12-------------10-10-10h12--10-----------------------------
|--------------------------------------------------9h10--9h10-10p8-------------
|------------------------------------------------------------------10-10-10-8--
            
-------
-------
-------
-------
-------
-8h10--

|-13---------------------------------------------------------------------------
|-12--13-12/-12p11h12-12/-------------13---------------------------------------
|-10-----------------------\10-12-12b----r12-10-12-10-10h12-10-----------------
|--------------------------------------------------------------10h12-10--------
|-----------------------------------------------------------------------8h10---
|------------------------------------------------------------------------------
                                                      
------------------7--|
------------------6--|
------------------5--|
---------------------|
-10-10p8-------------|
---------8h10-10-----|

Clipes