A9
12
X02200
C
123
X32010
C#5
134
X466XX
C5
134
X355XX
C9
34
X35533
D4(9)
234
X57985
D5
134
X577XX
D9
12
XX0230
D9/F
123
1XX230
E5
12
022XXX
F#5
134
244XXX
F5
134
133XXX
G5
134
355XXX
G6/B
34
75575X
Tom: G
[Intro]

#1t1##1t2#E|------------------------------------|
B|------------------------------------|
G|------------------------------------|
D|---3h5---3--------------------------|
A|------------------------------------|
D|------------------------------------|#/1t2##/1t1#
  
#2t1#   D9             D9/F     G6/B  C9
#2t2#E|----------0-------------0--------0--------------------|
B|----------3-------------3--------3--------------------|
G|------2-----------0h2-----------0-----------0h2p0-----|
D|--0-------------3-----------------------0h2------2p0--|
A|----------------------------2-------2h3---------------|
D|------------------------------------------------------|#/2t2##/2t1#

#3t1#    D9    D9/F        G6/B  C9    G6/B
#3t2#E|----------0-------------0-------0------------------|
B|----------3-------------3-------3-----3----3-------|
G|------2-----------0h2----------0------0----0-------|
D|--0-------------3----------------------------------|
A|----------------------------2----2h3----2----------|
D|---------------------------------------------------|#/3t2##/3t1#
  
My friends are so depressed

#4t1#   C         A9
#4t2#E|--------------------------|
B|--1----------2------------|
G|--0----------2------------|
D|--2----------0------------|
A|--3----------0------------|
D|--------------------------|#/4t2##/4t1#

I love all of you... So hard and lonely too

#5t1#  C      D4(9) A9
#5t2#E|---------------------------|
B|------1------3------2------|
G|------0------0------2------|
D|----2------4--------0------|
A|--3------5----------0------|
D|---------------------------|#/5t2##/5t1#

#6t1#   Hurt by the cold... when you don't know yourself
#6t2#E|----------------------------------------------------|
B|----------------------------------------------------|
G|--9-9-9-9-9-9-9-9--7-7-7-7-7-7-7-7--6-6-6-6-6-6-6-6-|
D|--9-9-9-9-9-9-9-9--7-7-7-7-7-7-7-7--6-6-6-6-6-6-6-6-|
A|--7-7-7-7-7-7-7-7--5-5-5-5-5-5-5-5--4-4-4-4-4-4-4-4-|
D|----------------------------------------------------|#/6t2##/6t1#

#7t1#   Imagine me taught by tragedy
#7t2#E|----------------------------------------------------|
B|----------------------------------------------------|
G|--5-5-5-5-5-5-5-5-----------------------------------|
D|--5-5-5-5-5-5-5-5--5-5-5-5-5-5-5-5--4-4-4-4-4-4-4-4-|
A|--3-3-3-3-3-3-3-3--5-5-5-5-5-5-5-5--4-4-4-4-4-4-4-4-|
D|-------------------5-5-5-5-5-5-5-5--4-4-4-4-4-4-4-4-|#/7t2##/7t1#
  
#8t1#    Release in peace
#8t2#E|-----------------------------------|
B|-----------------------------------|
G|-----------------------------------|
D|--3-3-3-3-3-3-3-3--3-3-3-3-3-3-3-3-|
A|--3-3-3-3-3-3-3-3--3-3-3-3-3-3-3-3-|
D|--3-3-3-3-3-3-3-3--3-3-3-3-3-3-3-3-|#/8t2##/8t1#
  
[D9  D9/F  G6/B  C9]


 D9                 D9/F         G6/B
    My friends are so depressed,
       C9        D9              D9/F      G6/B
    I feel the question of your loneliness.
        C9         D9               D9/F   G6/B
    Confide, cause I'll be on your side,
         C9           D9         D9/F     G6/B  C9
    You know I will,       you know   I  will.

    D9               D9/F         G6/B
        X-girlfriend called me up,
        C9       D9                 D9/F       G6/B
    Alone and desperate, on the prison phone.
          C9      D9         D9/F   G6/B       C9
    They want to give her 7 years         for being sad.

  C        A9          C        D4(9)  A9
    I love all of you,    hurt by the cold.
  C              A9         C        D4(9)      A9
    So hard and lonely too,    when you don't know yourself.

 D9                 D9/F          G6/B
    My friends are so distressed,
          C9     D9              D9/F       G6/B
    And standing on the brink of emptiness.
        C9       D9           D9/F   G6/B       C9
    No words I know of to express          this emptiness.
   
    E5       D5  C#5            C5     G5       F#5   F5
    Imagine me  taught by tragedy,  release is peace.

 D9            D9/F        G6/B
    I heard a little girl,
          C9      D9                  D9/F      G6/B
    And what she said  was something beautiful,
        C9        D9               D9/F   G6/B       C9
    To give your love, no matter what.         and what she said.
Composição: Dave NavarroColaboração e revisão: Leonardo LourencoAndréRafaelVitor Ornelase mais 1