busca

My Friends

Red Hot Chili Peppers

Tom: C
[Intro]

E|------------------------------------|
B|------------------------------------|
G|------------------------------------|
D|---3h5---3--------------------------|
A|------------------------------------|
D|------------------------------------|
  
   D9             D9/F     G6/B  C9
E|----------0-------------0--------0--------------------|
B|----------3-------------3--------3--------------------|
G|------2-----------0h2-----------0-----------0h2p0-----|
D|--0-------------3-----------------------0h2------2p0--|
A|----------------------------2-------2h3---------------|
D|------------------------------------------------------|

    D9    D9/F        G6/B  C9    G6/B
E|----------0-------------0-------0------------------|
B|----------3-------------3-------3-----3----3-------|
G|------2-----------0h2----------0------0----0-------|
D|--0-------------3----------------------------------|
A|----------------------------2----2h3----2----------|
D|---------------------------------------------------|
  
My friends are so depressed

   C         A9
E|--------------------------|
B|--1----------2------------|
G|--0----------2------------|
D|--2----------0------------|
A|--3----------0------------|
D|--------------------------|

I love all of you... So hard and lonely too

  C      D4(9) A9
E|---------------------------|
B|------1------3------2------|
G|------0------0------2------|
D|----2------4--------0------|
A|--3------5----------0------|
D|---------------------------|

   Hurt by the cold... when you don't know yourself
E|----------------------------------------------------|
B|----------------------------------------------------|
G|--9-9-9-9-9-9-9-9--7-7-7-7-7-7-7-7--6-6-6-6-6-6-6-6-|
D|--9-9-9-9-9-9-9-9--7-7-7-7-7-7-7-7--6-6-6-6-6-6-6-6-|
A|--7-7-7-7-7-7-7-7--5-5-5-5-5-5-5-5--4-4-4-4-4-4-4-4-|
D|----------------------------------------------------|

   Imagine me taught by tragedy
E|----------------------------------------------------|
B|----------------------------------------------------|
G|--5-5-5-5-5-5-5-5-----------------------------------|
D|--5-5-5-5-5-5-5-5--5-5-5-5-5-5-5-5--4-4-4-4-4-4-4-4-|
A|--3-3-3-3-3-3-3-3--5-5-5-5-5-5-5-5--4-4-4-4-4-4-4-4-|
D|-------------------5-5-5-5-5-5-5-5--4-4-4-4-4-4-4-4-|
  
    Release in peace
E|-----------------------------------|
B|-----------------------------------|
G|-----------------------------------|
D|--3-3-3-3-3-3-3-3--3-3-3-3-3-3-3-3-|
A|--3-3-3-3-3-3-3-3--3-3-3-3-3-3-3-3-|
D|--3-3-3-3-3-3-3-3--3-3-3-3-3-3-3-3-|
  
[D9  D9/F  G6/B  C9]


 D9                 D9/F         G6/B
    My friends are so depressed,
       C9        D9              D9/F      G6/B
    I feel the question of your loneliness.
        C9         D9               D9/F   G6/B
    Confide, cause I'll be on your side,
         C9           D9         D9/F     G6/B  C9
    You know I will,       you know   I  will.

    D9               D9/F         G6/B
        X-girlfriend called me up,
        C9       D9                 D9/F       G6/B
    Alone and desperate, on the prison phone.
          C9      D9         D9/F   G6/B       C9
    They want to give her 7 years         for being sad.

  C        A9          C        D4(9)  A9
    I love all of you,    hurt by the cold.
  C              A9         C        D4(9)      A9
    So hard and lonely too,    when you don't know yourself.

 D9                 D9/F          G6/B
    My friends are so distressed,
          C9     D9              D9/F       G6/B
    And standing on the brink of emptiness.
        C9       D9           D9/F   G6/B       C9
    No words I know of to express          this emptiness.
   
    E5       D5  C#5            C5     G5       F#5   F5
    Imagine me  taught by tragedy,  release is peace.

 D9            D9/F        G6/B
    I heard a little girl,
          C9      D9                  D9/F      G6/B
    And what she said  was something beautiful,
        C9        D9               D9/F   G6/B       C9
    To give your love, no matter what.         and what she said.

Clipes