Tom: G
Intro and verse :


#1t1##1t2#|------------------------------------|
|------------------------------------|
|----------------------------7-------|
|-----------------7--5--7/9----9\7-5-|
|-7--5--7--5--7-5--------------------|
|------------------------------------|#/1t2##/1t1#



#2t1##2t2#|------------------------------------|
|------------------------------------|
|------------------------------------|
|------------------------------------|
|-7--5--7--5--7-5------------5-------|
|-----------------5--3--5/7----7\5-3-|#/2t2##/2t1#


#3t1##3t2#|------------------------------------|
|------------------------------------|
|----------------------------7-------|
|-----------------7--5--7/9----9\7-5-|
|-7--5--7--5--7-5--------------------|
|------------------------------------|#/3t2##/3t1#



#4t1##4t2#|------------------------------------|
|------------------------------------|
|------------------------------------|
|------------------------------------|
|-7--5--7--5--7-5------------5-------|
|-----------------5--3--5/7----7\5-3-|#/4t2##/4t1#


#5t1##5t2#|--------------------------------------------|
|--------------------------------15----------|
|-----------------14--12--14/16-----16\14-12-|
|--------------------------------------------|
|-7--5--7--5--7-5----------------------------|
|--------------------------------------------|#/5t2##/5t1#



#6t1##6t2#|--------------------------------------------------|
|--------------------------------------------------|
|--------------------------------------------------|
|-14--12--14--12--14-12----------------12----------|
|-----------------------12--10--12/14-----14\12-10-|
|--------------------------------------------------|#/6t2##/6t1#



Interlude :


#7t1##7t2#|----------------------------------|
|----------------------------------|
|----------------------------------|
|-----------------6-4-6-4-6-4-6-4--|
|-7-5-7-5-7-5-7-5------------------|
|----------------------------------|#/7t2##/7t1#


Intro and verse :


#8t1##8t2#|-------------------------------------|
|-------------------------------------|
|----------------------------7-9-7----|
|-----------------7--5--7/9--------9--|
|-7--5--7--5--7-5---------------------|
|-------------------------------------|#/8t2##/8t1#



#9t1##9t2#|------------------------------------|
|------------------------------------|
|------------------------------------|
|------------------------------------|
|-7--5--7--5--7-5------------5-------|
|-----------------5--3--5/7----7\5-3-|#/9t2##/9t1#



#10t1##10t2#|--------------------------------------------|
|--------------------------------15----------|
|-----------------14--12--14/16-----16\14-12-|
|--------------------------------------------|
|-7--5--7--5--7-5----------------------------|
|--------------------------------------------|#/10t2##/10t1#



#11t1##11t2#|--------------------------------------------------|
|--------------------------------------------------|
|--------------------------------------------------|
|-14--12--14--12--14-12----------------12----------|
|-----------------------12--10--12/14-----14\12-10-|
|--------------------------------------------------|#/11t2##/11t1#


Chorus :


#12t1##12t2#|------8-------8--x-8-8------10------10--x-10--|
|------8-------8--x-8-8------10------10--x-10--|
|------5-------5--x-5-5-------7-------7--x--7--|
|-5/7-----5/7------------7/9-----7/9-----------|
|----------------------------------------------|
|----------------------------------------------|#/12t2##/12t1#


#13t1##13t2#|-----X-9-7-----9-7------9-7-----9-7--|
|-----X-8-8-----8-8------8-8-----8-8--|
|-7/9--------9------7/9------9--------|
|-------------------------------------|
|-------------------------------------|
|-------------------------------------|#/13t2##/13t1#

#14t1##14t2#|------8-------8--x-8-8------10------10--x-10--|
|------8-------8--x-8-8------10------10--x-10--|
|------5-------5--x-5-5-------7-------7--x--7--|
|-5/7-----5/7------------7/9-----7/9-----------|
|----------------------------------------------|
|----------------------------------------------|#/14t2##/14t1#


#15t1##15t2#|-----x-9-7---------9-7------9-7-----9-7--|
|-----X-8-8---------8-8------8-8-----8-8--|
|-7/9--------9-7-9-------7/9------9-------|
|-----------------------------------------|
|-----------------------------------------|
|-----------------------------------------|#/15t2##/15t1#


Intro and verse :


#16t1##16t2#|------------------------------------|
|------------------------------------|
|----------------------------7-------|
|-----------------7--5--7/9----9\7-5-|
|-7--5--7--5--7-5--------------------|
|------------------------------------|#/16t2##/16t1#



#17t1##17t2#|------------------------------------|
|------------------------------------|
|------------------------------------|
|------------------------------------|
|-7--5--7--5--7-5------------5-------|
|-----------------5--3--5/7----7\5-3-|#/17t2##/17t1#



#18t1##18t2#|--------------------------------------------|
|--------------------------------15----------|
|-----------------14--12--14/16-----16\14-12-|
|--------------------------------------------|
|-7--5--7--5--7-5----------------------------|
|--------------------------------------------|#/18t2##/18t1#



#19t1##19t2#|--------------------------------------------------|
|--------------------------------------------------|
|--------------------------------------------------|
|-14--12--14--12--14-12----------------12----------|
|-----------------------12--10--12/14-----14\12-10-|
|--------------------------------------------------|#/19t2##/19t1#


chorus :


#20t1##20t2#|------8-------8--x-8-8---------------|
|------8-------8--x-8-8----x-x-x-x-x--|
|------5-------5--x-5-5----x-x-x-x-x--|
|-5/7-----5/7--------------x-x-x-x-x--|
|-------------------------------------|
|-------------------------------------|#/20t2##/20t1#


solo:


#21t1##21t2#|------------------------------------------|
|-12b--------12b--12b--12b-------------12--|
|-14b--------14b--14b--14b---------14b-----|
|------------------------------------------|
|------------------------------------------|
|------------------------------------------|#/21t2##/21t1#


#22t1##22t2#|------------------------------------------------------|
|-14--------14/15b--15--15--12b---12----12------12-----|
|---------------------------14b------------14-12---14--|
|------------------------------------------------------|
|------------------------------------------------------|
|------------------------------------------------------|#/22t2##/22t1#


#23t1##23t2#|--8b-----------------8b--6b------5b-------5b--5b--|
|-10b----------------10b--8b------7b-------7b--7b--|
|--------------------------------------------------|
|--------------------------------------------------|
|--------------------------------------------------|
|--------------------------------------------------|#/23t2##/23t1#


#24t1##24t2#|--3b------------------------------------------------|
|--5b----------------7-7-7-7-7-7-7-7---5--5--5--5-5b-|
|----------------------------------------------------|
|----------------------------------------------------|
|----------------------------------------------------|
|----------------------------------------------------|#/24t2##/24t1#


#25t1##25t2#|-12--12-12------12------------------------------|
|------------15------15-12------15----12-----12--|
|--------------------------15-14---14----14------|
|------------------------------------------------|
|------------------------------------------------|
|------------------------------------------------|#/25t2##/25t1#


#26t1##26t2#|------------------------------------------------|
|-------------------15-------------------12------|
|--14---12-14-12-14-----14---12-14-12-14-----14--|
|------------------------------------------------|
|------------------------------------------------|
|------------------------------------------------|#/26t2##/26t1#


#27t1##27t2#|---------------------------------------------|
|---15---------12-----------------15----------|
|------14---------14-12-14-12-14-----14---12--|
|---------------------------------------------|
|---------------------------------------------|
|---------------------------------------------|#/27t2##/27t1#


#28t1##28t2#|-------------------------------------------------|
|------------15--------------------15-------------|
|--14-12-14------14---12-14-12-14------14-----12--|
|-------------------------------------------------|
|-------------------------------------------------|
|-------------------------------------------------|#/28t2##/28t1#


#29t1##29t2#|----------------------------------------------------------------15b--|
|-----------15----15----15----12-----------17--17b---17----14---------|
|--14-12-14----14----14----14-----14/16b-------16b---16-16----16------|
|---------------------------------------------------------------------|
|---------------------------------------------------------------------|
|---------------------------------------------------------------------|#/29t2##/29t1#


#30t1##30t2#|-15/12----12-------12-----15-----17-------18------------13----15--|
|-------15----x-15-----15/17---17-----------------16---------------|
|------------------------------------------------------------------|
|------------------------------------------------------------------|
|------------------------------------------------------------------|
|------------------------------------------------------------------|#/30t2##/30t1#


Intro and verse :


#31t1##31t2#|------------------------------------|
|------------------------------------|
|----------------------------7-------|
|-----------------7--5--7/9----9\7-5-|
|-7--5--7--5--7-5--------------------|
|------------------------------------|#/31t2##/31t1#



#32t1##32t2#|------------------------------------|
|------------------------------------|
|------------------------------------|
|------------------------------------|
|-7--5--7--5--7-5------------5-------|
|-----------------5--3--5/7----7\5-3-|#/32t2##/32t1#



#33t1##33t2#|--------------------------------------------|
|--------------------------------15----------|
|-----------------14--12--14/16-----16\14-12-|
|--------------------------------------------|
|-7--5--7--5--7-5----------------------------|
|--------------------------------------------|#/33t2##/33t1#



#34t1##34t2#|--------------------------------------------------|
|--------------------------------------------------|
|--------------------------------------------------|
|-14--12--14--12--14-12----------------12----------|
|-----------------------12--10--12/14-----14\12-10-|
|--------------------------------------------------|#/34t2##/34t1#


Chorus :


#35t1##35t2#|------8-------8--x-8-8------10------10--x-10--|
|------8-------8--x-8-8------10------10--x-10--|
|------5-------5--x-5-5-------7-------7--x--7--|
|-5/7-----5/7------------7/9-----7/9-----------|
|----------------------------------------------|
|----------------------------------------------|#/35t2##/35t1#


#36t1##36t2#|-----X-9-7-----9-7-------9-7-----9-7---|
|-----X-8-8-----8-8-------8-8-----8-8---|
|-7/9--------9------7-9-7------9--------|
|---------------------------------------|
|---------------------------------------|
|---------------------------------------|#/36t2##/36t1#

#37t1##37t2#|------8-------8--x-8-8------10------10--x-10--|
|------8-------8--x-8-8------10------10--x-10--|
|------5-------5--x-5-5-------7-------7--x--7--|
|-5/7-----5/7------------7/9-----7/9-----------|
|----------------------------------------------|
|----------------------------------------------|#/37t2##/37t1#


#38t1##38t2#|-----x-9-7---------9-7------9-7-----9-7--|
|-----X-8-8---------8-8------8-8-----8-8--|
|-7/9--------9-7-9-------7/9------9-------|
|-----------------------------------------|
|-----------------------------------------|
|-----------------------------------------|#/38t2##/38t1#


<12> play the harmonic



#39t1##39t2#|--------------------------------------------------------|
|--------14-12----14-12---14-12---14-12-------------12b--|
|--12-12-------12-------12------12------------------12b--|
|---------------------------------------------------14b--|
|--------------------------------------------------------|
|--------------------------------------------------------|#/39t2##/39t1#


#40t1##40t2#|------------------------------------------------------|
|--3------3------3----------------------------------3--|
|-----------------------------2b3-0------------2b------|
|------------------------------------------------------|
|------------------------------------------------------|
|------------------------------------------------------|#/40t2##/40t1#


#41t1##41t2#|----------------------------------------------|
|-----------------------------------------15b--|
|--2-0----2-0----------------------------------|
|------2--------2--0--2------------------------|
|----------------------------------------------|
|----------------------------------------------|#/41t2##/41t1#


#42t1##42t2#|-------------------------------------------------12--|
|---12----------------------------------12------------|
|----------------------12-----------------------------|
|-----------------------------------------------------|
|-----------------------------------------------------|
|-----------------------------------------------------|#/42t2##/42t1#


#43t1##43t2#|---15----------------14-----------12-------------|
|------12-------12----------12----------12--------|
|---------12-12----12-------------------------12--|
|-------------------------------------------------|
|-------------------------------------------------|
|-------------------------------------------------|#/43t2##/43t1#


#44t1##44t2#|----------------------------------------------------------|
|--15---12--------14---12----------------------------------|
|------------12-------------12---------------------------12|
|--------------------------------14------------------------|
|----------------------------------------------------------|
|----------------------------------------------------------|#/44t2##/44t1#
Composição: Anthony Kiedis / Chad Smith / Flea / John FruscianteColaboração e revisão: Narlon Gonçalves