busca

My Lovely Man

Red Hot Chili Peppers

Tom: C
Intro and verse :


|------------------------------------|
|------------------------------------|
|----------------------------7-------|
|-----------------7--5--7/9----9\7-5-|
|-7--5--7--5--7-5--------------------|
|------------------------------------|


|------------------------------------|
|------------------------------------|
|------------------------------------|
|------------------------------------|
|-7--5--7--5--7-5------------5-------|
|-----------------5--3--5/7----7\5-3-|


|------------------------------------|
|------------------------------------|
|----------------------------7-------|
|-----------------7--5--7/9----9\7-5-|
|-7--5--7--5--7-5--------------------|
|------------------------------------|


|------------------------------------|
|------------------------------------|
|------------------------------------|
|------------------------------------|
|-7--5--7--5--7-5------------5-------|
|-----------------5--3--5/7----7\5-3-|


|--------------------------------------------|
|--------------------------------15----------|
|-----------------14--12--14/16-----16\14-12-|
|--------------------------------------------|
|-7--5--7--5--7-5----------------------------|
|--------------------------------------------|


|--------------------------------------------------|
|--------------------------------------------------|
|--------------------------------------------------|
|-14--12--14--12--14-12----------------12----------|
|-----------------------12--10--12/14-----14\12-10-|
|--------------------------------------------------|



Interlude :


|----------------------------------|
|----------------------------------|
|----------------------------------|
|-----------------6-4-6-4-6-4-6-4--|
|-7-5-7-5-7-5-7-5------------------|
|----------------------------------|


Intro and verse :


|-------------------------------------|
|-------------------------------------|
|----------------------------7-9-7----|
|-----------------7--5--7/9--------9--|
|-7--5--7--5--7-5---------------------|
|-------------------------------------|


|------------------------------------|
|------------------------------------|
|------------------------------------|
|------------------------------------|
|-7--5--7--5--7-5------------5-------|
|-----------------5--3--5/7----7\5-3-|


|--------------------------------------------|
|--------------------------------15----------|
|-----------------14--12--14/16-----16\14-12-|
|--------------------------------------------|
|-7--5--7--5--7-5----------------------------|
|--------------------------------------------|


|--------------------------------------------------|
|--------------------------------------------------|
|--------------------------------------------------|
|-14--12--14--12--14-12----------------12----------|
|-----------------------12--10--12/14-----14\12-10-|
|--------------------------------------------------|


Chorus :


|------8-------8--x-8-8------10------10--x-10--|
|------8-------8--x-8-8------10------10--x-10--|
|------5-------5--x-5-5-------7-------7--x--7--|
|-5/7-----5/7------------7/9-----7/9-----------|
|----------------------------------------------|
|----------------------------------------------|


|-----X-9-7-----9-7------9-7-----9-7--|
|-----X-8-8-----8-8------8-8-----8-8--|
|-7/9--------9------7/9------9--------|
|-------------------------------------|
|-------------------------------------|
|-------------------------------------|

|------8-------8--x-8-8------10------10--x-10--|
|------8-------8--x-8-8------10------10--x-10--|
|------5-------5--x-5-5-------7-------7--x--7--|
|-5/7-----5/7------------7/9-----7/9-----------|
|----------------------------------------------|
|----------------------------------------------|


|-----x-9-7---------9-7------9-7-----9-7--|
|-----X-8-8---------8-8------8-8-----8-8--|
|-7/9--------9-7-9-------7/9------9-------|
|-----------------------------------------|
|-----------------------------------------|
|-----------------------------------------|


Intro and verse :


|------------------------------------|
|------------------------------------|
|----------------------------7-------|
|-----------------7--5--7/9----9\7-5-|
|-7--5--7--5--7-5--------------------|
|------------------------------------|


|------------------------------------|
|------------------------------------|
|------------------------------------|
|------------------------------------|
|-7--5--7--5--7-5------------5-------|
|-----------------5--3--5/7----7\5-3-|


|--------------------------------------------|
|--------------------------------15----------|
|-----------------14--12--14/16-----16\14-12-|
|--------------------------------------------|
|-7--5--7--5--7-5----------------------------|
|--------------------------------------------|


|--------------------------------------------------|
|--------------------------------------------------|
|--------------------------------------------------|
|-14--12--14--12--14-12----------------12----------|
|-----------------------12--10--12/14-----14\12-10-|
|--------------------------------------------------|


chorus :


|------8-------8--x-8-8---------------|
|------8-------8--x-8-8----x-x-x-x-x--|
|------5-------5--x-5-5----x-x-x-x-x--|
|-5/7-----5/7--------------x-x-x-x-x--|
|-------------------------------------|
|-------------------------------------|


solo:


|------------------------------------------|
|-12b--------12b--12b--12b-------------12--|
|-14b--------14b--14b--14b---------14b-----|
|------------------------------------------|
|------------------------------------------|
|------------------------------------------|


|------------------------------------------------------|
|-14--------14/15b--15--15--12b---12----12------12-----|
|---------------------------14b------------14-12---14--|
|------------------------------------------------------|
|------------------------------------------------------|
|------------------------------------------------------|


|--8b-----------------8b--6b------5b-------5b--5b--|
|-10b----------------10b--8b------7b-------7b--7b--|
|--------------------------------------------------|
|--------------------------------------------------|
|--------------------------------------------------|
|--------------------------------------------------|


|--3b------------------------------------------------|
|--5b----------------7-7-7-7-7-7-7-7---5--5--5--5-5b-|
|----------------------------------------------------|
|----------------------------------------------------|
|----------------------------------------------------|
|----------------------------------------------------|


|-12--12-12------12------------------------------|
|------------15------15-12------15----12-----12--|
|--------------------------15-14---14----14------|
|------------------------------------------------|
|------------------------------------------------|
|------------------------------------------------|


|------------------------------------------------|
|-------------------15-------------------12------|
|--14---12-14-12-14-----14---12-14-12-14-----14--|
|------------------------------------------------|
|------------------------------------------------|
|------------------------------------------------|


|---------------------------------------------|
|---15---------12-----------------15----------|
|------14---------14-12-14-12-14-----14---12--|
|---------------------------------------------|
|---------------------------------------------|
|---------------------------------------------|


|-------------------------------------------------|
|------------15--------------------15-------------|
|--14-12-14------14---12-14-12-14------14-----12--|
|-------------------------------------------------|
|-------------------------------------------------|
|-------------------------------------------------|


|----------------------------------------------------------------15b--|
|-----------15----15----15----12-----------17--17b---17----14---------|
|--14-12-14----14----14----14-----14/16b-------16b---16-16----16------|
|---------------------------------------------------------------------|
|---------------------------------------------------------------------|
|---------------------------------------------------------------------|


|-15/12----12-------12-----15-----17-------18------------13----15--|
|-------15----x-15-----15/17---17-----------------16---------------|
|------------------------------------------------------------------|
|------------------------------------------------------------------|
|------------------------------------------------------------------|
|------------------------------------------------------------------|


Intro and verse :


|------------------------------------|
|------------------------------------|
|----------------------------7-------|
|-----------------7--5--7/9----9\7-5-|
|-7--5--7--5--7-5--------------------|
|------------------------------------|


|------------------------------------|
|------------------------------------|
|------------------------------------|
|------------------------------------|
|-7--5--7--5--7-5------------5-------|
|-----------------5--3--5/7----7\5-3-|


|--------------------------------------------|
|--------------------------------15----------|
|-----------------14--12--14/16-----16\14-12-|
|--------------------------------------------|
|-7--5--7--5--7-5----------------------------|
|--------------------------------------------|


|--------------------------------------------------|
|--------------------------------------------------|
|--------------------------------------------------|
|-14--12--14--12--14-12----------------12----------|
|-----------------------12--10--12/14-----14\12-10-|
|--------------------------------------------------|


Chorus :


|------8-------8--x-8-8------10------10--x-10--|
|------8-------8--x-8-8------10------10--x-10--|
|------5-------5--x-5-5-------7-------7--x--7--|
|-5/7-----5/7------------7/9-----7/9-----------|
|----------------------------------------------|
|----------------------------------------------|


|-----X-9-7-----9-7-------9-7-----9-7---|
|-----X-8-8-----8-8-------8-8-----8-8---|
|-7/9--------9------7-9-7------9--------|
|---------------------------------------|
|---------------------------------------|
|---------------------------------------|

|------8-------8--x-8-8------10------10--x-10--|
|------8-------8--x-8-8------10------10--x-10--|
|------5-------5--x-5-5-------7-------7--x--7--|
|-5/7-----5/7------------7/9-----7/9-----------|
|----------------------------------------------|
|----------------------------------------------|


|-----x-9-7---------9-7------9-7-----9-7--|
|-----X-8-8---------8-8------8-8-----8-8--|
|-7/9--------9-7-9-------7/9------9-------|
|-----------------------------------------|
|-----------------------------------------|
|-----------------------------------------|


<12> play the harmonic



|--------------------------------------------------------|
|--------14-12----14-12---14-12---14-12-------------12b--|
|--12-12-------12-------12------12------------------12b--|
|---------------------------------------------------14b--|
|--------------------------------------------------------|
|--------------------------------------------------------|


|------------------------------------------------------|
|--3------3------3----------------------------------3--|
|-----------------------------2b3-0------------2b------|
|------------------------------------------------------|
|------------------------------------------------------|
|------------------------------------------------------|


|----------------------------------------------|
|-----------------------------------------15b--|
|--2-0----2-0----------------------------------|
|------2--------2--0--2------------------------|
|----------------------------------------------|
|----------------------------------------------|


|-------------------------------------------------12--|
|---12----------------------------------12------------|
|----------------------12-----------------------------|
|-----------------------------------------------------|
|-----------------------------------------------------|
|-----------------------------------------------------|


|---15----------------14-----------12-------------|
|------12-------12----------12----------12--------|
|---------12-12----12-------------------------12--|
|-------------------------------------------------|
|-------------------------------------------------|
|-------------------------------------------------|


|----------------------------------------------------------|
|--15---12--------14---12----------------------------------|
|------------12-------------12---------------------------12|
|--------------------------------14------------------------|
|----------------------------------------------------------|
|----------------------------------------------------------|

Clipes