One Hot Minute

Red Hot Chili Peppers

Tom: G
#1t1#Riff 1:
#1t2#---------------------------------------
---------------------------------------
-------6/7/6-6/7/6-------6/7/6-6/7/6---
---2-----------------2-----------------
---2-----------------2-----------------
---0-----------------0-----------------#/1t2##/1t1#

Riff 2:
1:
#2t1##2t2#-------------------------------
-------------------------------
-------------------5-5-5-7/9---
---5--5--5--5--2---------------
---3--3--3--3--0---------------
-------------------------------#/2t2##/2t1#

#3t1#2:
#3t2#-------------------------------
-------------------------------
-------------------5-5-5-5-5---
---5--5--5--5--2---------------
---3--3--3--3--0---------------
-------------------------------#/3t2##/3t1#

#4t1#3:
#4t2#-----------------------------------------------
-----------------------------------------------
-------------------9-8-7-6-5-------------------
---5--5--5--5--2---------------5--5--5--5--2---
---3--3--3--3--0---------------3--3--3--3--0---
-----------------------------------------------#/4t2##/4t1#

#5t1#Riff 3:
#5t2#------------------------------
------------------------------
------------------------------
---11-11-11--9--9---4--4--4---
---9--9--9---7--7---2--2--2---
------------------------------#/5t2##/5t1#

#6t1#Riff 4:
#6t2#---------------------------------------
---------------------------------------
---------------------------------------
---8----8----8----8----8/10-10-10-10---
-----7----7----7----7------------------
---------------------------------------#/6t2##/6t1#

#7t1#Riff 5:
#7t2#---------------------
---------------------
---------------------
---2---7--12--7--9---
---2---5--10--5--7---
---0-----------------#/7t2##/7t1#

#8t1#Riff 6:
#8t2#---8-8-8-8-8-8-----------------------------------------------
-------------------------------------------------------------
-------------------------------------------------------------
-----------------2---4---------------------------------------
-------------------------3----4---11---12-11-9--11---7---4---
-------------------------------------------------------------#/8t2##/8t1#

#9t1##9t2#--------------------------------------------
--------------------------------------------
--------------------------------------------
--------------------------------------------
---b-b-b-b----9-7---7-3--4---b-b-b--3---4---
--------------------------------------------#/9t2##/9t1#
Composição: Colaboração e revisão: Fernando Malentacchi