busca

Out In L.A.

Red Hot Chili Peppers

Tom: A#
-----------------------------6-----------------------------------------------|
----8-8-8-8-8-8---8-8-8-8-8--6-----------------------------------------------|
----7-7-7-7-7-7---7-7-7-7-7--------------------------------------------------|
-----------------------------------------------------------------------------|
-----------------------------------------------------------------------------|
-----------------------------------------------------------------------------|
        (verse)

-----------------------------------------------------------------------------|
----15-----------------------------------------------------------------------|
-----------------------------------------------------------------------------|
-----------------------------------------------------------------------------|
-----------------------------------------------------------------------------|
-----------------------------------------------------------------------------|
    starts with this note,then improvisation

---12-15-17-19---------------------------------------------------------------|
---12-15-17-20---------------------------------------------------------------|
---12-14-16------------------------------------------------------------------|
---12-14-16------------------------------------------------------------------|
-----------------------------------------------------------------------------|
-----------------------------------------------------------------------------|

Clipes