Tom: G
#1t1##1t2#-----------------------------6-----------------------------------------------|
----8-8-8-8-8-8---8-8-8-8-8--6-----------------------------------------------|
----7-7-7-7-7-7---7-7-7-7-7--------------------------------------------------|
-----------------------------------------------------------------------------|
-----------------------------------------------------------------------------|
-----------------------------------------------------------------------------|#/1t2##/1t1#
        (verse)

#2t1##2t2#-----------------------------------------------------------------------------|
----15-----------------------------------------------------------------------|
-----------------------------------------------------------------------------|
-----------------------------------------------------------------------------|
-----------------------------------------------------------------------------|
-----------------------------------------------------------------------------|#/2t2##/2t1#
    starts with this note,then improvisation

#3t1##3t2#---12-15-17-19---------------------------------------------------------------|
---12-15-17-20---------------------------------------------------------------|
---12-14-16------------------------------------------------------------------|
---12-14-16------------------------------------------------------------------|
-----------------------------------------------------------------------------|
-----------------------------------------------------------------------------|#/3t2##/3t1#

Composição: Colaboração e revisão: Gustavo Maia