busca

Police Helicopter

Red Hot Chili Peppers

Tom: F#
Riff 1:
     G7/9+                             G7/9+
e|---------------------------------|---------------------------------|
B|--11--11-11-11-------------------|--11--11-11-11-------------------|
G|--10--10-10-10-------------------|--10--10-10-10-------------------|
D|---9---9--9--9-------------8--8--|---9---9--9--9-------------8--8--|
A|--10--10-10-10--7-8h10-10--------|--10--10-10-10--7-8h10-10--------|
E|---------------------------------|---------------------------------|
  
Riff 2:
     G7/9+                G7/9+
e|--------------------|--------------------|
B|--11--11-11-11--11--|--11--11-11-11--11--|
G|--10--10-10-10--10--|--10--10-10-10--10--|
D|---9---9--9--9---9--|---9---9--9--9---9--|
A|--10--10-10-10--10--|--10--10-10-10--10--|
E|--------------------|--------------------|
                   
Final: Aah!......
     G7/9+
e|-------------------------|
B|--11-11-11-11-11-11--11--|
G|--10-10-10-10-10-10--10--|
D|---9--9--9--9--9--9---9--|
A|--10-10-10-10-10-10--10--|
E|-------------------------|


Intro:Riff 1:2x
Aw!

Riff 2:
Police helicopter shot the sky
Police helicopter landin' on my eye

Riff 1:2x
Yeah!

Riff 2:
Police helicopter takes a nose-dive
Police helicopter, he ain't shy

Riff 1:2x
Yeah!

Aw!

Riff 2:
Police helicopter shot the sky
Police helicopter landin' on my eye

Riff 1:2x
Yeah!

Riff 2:
Police helicopter takes a nose-dive
Police helicopter, he ain't shy

Riff 1:2x
Yeah!

Final:
Aww!

Clipes